ISO-10303-21;
HEADER;
FILE_DESCRIPTION (( 'STEP AP203' ),
    '1' );
FILE_NAME ('207.step',
    '2021-10-06T08:24:29',
    ( '' ),
    ( '' ),
    'SwSTEP 2.0',
    'SolidWorks 2019',
    '' );
FILE_SCHEMA (( 'CONFIG_CONTROL_DESIGN' ));
ENDSEC;

DATA;
#1 = FACE_BOUND ( 'NONE', #77, .T. ) ;
#2 = EDGE_CURVE ( 'NONE', #131, #131, #203, .T. ) ;
#3 = PLANE ( 'NONE',  #113 ) ;
#4 = CC_DESIGN_APPROVAL ( #9, ( #103 ) ) ;
#5 = EDGE_LOOP ( 'NONE', ( #63 ) ) ;
#6 = PERSON_AND_ORGANIZATION ( #183, #67 ) ;
#7 = APPROVAL_ROLE ( '' ) ;
#8 = AXIS2_PLACEMENT_3D ( 'NONE', #38, #181, #37 ) ;
#9 = APPROVAL ( #172, 'UNSPECIFIED' ) ;
#10 = CARTESIAN_POINT ( 'NONE',  ( 9.071134608832402538E-16, 0.4499999999999962919, 0.2598076211353325671 ) ) ;
#11 = CARTESIAN_POINT ( 'NONE',  ( 9.071134608832400566E-16, -3.181725716174731468E-17, 0.2598076211353325116 ) ) ;
#12 = CC_DESIGN_PERSON_AND_ORGANIZATION_ASSIGNMENT ( #41, #169, ( #53 ) ) ;
#13 = DATE_TIME_ROLE ( 'classification_date' ) ;
#14 = APPROVAL_ROLE ( '' ) ;
#15 = DATE_AND_TIME ( #72, #193 ) ;
#16 = CIRCLE ( 'NONE', #147, 0.4499999999999963474 ) ;
#17 = CONICAL_SURFACE ( 'NONE', #26, 0.4499999999999963474, 1.047197551196592746 ) ;
#18 = EDGE_LOOP ( 'NONE', ( #195 ) ) ;
#19 = FACE_OUTER_BOUND ( 'NONE', #160, .T. ) ;
#20 = EDGE_CURVE ( 'NONE', #69, #69, #50, .T. ) ;
#21 = DIRECTION ( 'NONE',  ( -3.491481338843133355E-15, 1.224646799147353207E-16, -1.000000000000000000 ) ) ;
#22 = DIRECTION ( 'NONE',  ( 4.275831445896958607E-31, 1.000000000000000000, 1.224646799147352961E-16 ) ) ;
#23 = CARTESIAN_POINT ( 'NONE',  ( 1.043952920314096810E-13, 0.4499999999999962919, 29.89999999999999858 ) ) ;
#24 = VERTEX_POINT ( 'NONE', #23 ) ;
#25 = APPROVAL_ROLE ( '' ) ;
#26 = AXIS2_PLACEMENT_3D ( 'NONE', #11, #83, #98 ) ;
#27 = PERSON_AND_ORGANIZATION ( #183, #67 ) ;
#28 = ADVANCED_FACE ( 'NONE', ( #122, #1 ), #35, .T. ) ;
#29 = APPROVAL_DATE_TIME ( #51, #150 ) ;
#30 = CALENDAR_DATE ( 2021, 6, 10 ) ;
#31 = CC_DESIGN_APPROVAL ( #150, ( #53 ) ) ;
#32 = CC_DESIGN_PERSON_AND_ORGANIZATION_ASSIGNMENT ( #100, #170, ( #103 ) ) ;
#33 = FACE_OUTER_BOUND ( 'NONE', #138, .T. ) ;
#34 = LOCAL_TIME ( 10, 24, 29.00000000000000000, #153 ) ;
#35 = CONICAL_SURFACE ( 'NONE', #120, 0.3499999999999999778, 0.7853981633974512766 ) ;
#36 = CARTESIAN_POINT ( 'NONE',  ( 0.0000000000000000000, 0.0000000000000000000, 0.0000000000000000000 ) ) ;
#37 = DIRECTION ( 'NONE',  ( 1.000000000000000000, 0.0000000000000000000, 0.0000000000000000000 ) ) ;
#38 = CARTESIAN_POINT ( 'NONE',  ( 0.0000000000000000000, 0.0000000000000000000, 0.0000000000000000000 ) ) ;
#39 = ADVANCED_BREP_SHAPE_REPRESENTATION ( '207', ( #54, #58, #8 ), #91 ) ;
#40 = CIRCLE ( 'NONE', #152, 0.3499999999999999778 ) ;
#41 = PERSON_AND_ORGANIZATION ( #183, #67 ) ;
#42 = AXIS2_PLACEMENT_3D ( 'NONE', #79, #21, #22 ) ;
#43 = PRODUCT ( '207', '207', '', ( #132 ) ) ;
#44 = ORIENTED_EDGE ( 'NONE', *, *, #2, .F. ) ;
#45 = FACE_OUTER_BOUND ( 'NONE', #92, .T. ) ;
#46 = ORIENTED_EDGE ( 'NONE', *, *, #171, .T. ) ;
#47 =( NAMED_UNIT ( * ) SI_UNIT ( $, .STERADIAN. ) SOLID_ANGLE_UNIT ( ) );
#48 = DIRECTION ( 'NONE',  ( -3.491481338843133355E-15, 1.224646799147353207E-16, -1.000000000000000000 ) ) ;
#49 = CLOSED_SHELL ( 'NONE', ( #176, #200, #162 ) ) ;
#50 = CIRCLE ( 'NONE', #64, 0.4499999999999971800 ) ;
#51 = DATE_AND_TIME ( #129, #198 ) ;
#52 = CARTESIAN_POINT ( 'NONE',  ( 2.444036937190193349E-14, 3.374459510989145406E-33, 7.000000000000000000 ) ) ;
#53 = PRODUCT_DEFINITION ( 'UNKNOWN', '', #103, #124 ) ;
#54 = MANIFOLD_SOLID_BREP ( 'Corps-Déplacer/Copier1[1]', #84 ) ;
#55 = COORDINATED_UNIVERSAL_TIME_OFFSET ( 1, 0, .AHEAD. ) ;
#56 = APPROVAL_PERSON_ORGANIZATION ( #118, #9, #14 ) ;
#57 = DATE_TIME_ROLE ( 'creation_date' ) ;
#58 = MANIFOLD_SOLID_BREP ( 'Corps-Déplacer/Copier1[2]', #49 ) ;
#59 = EDGE_LOOP ( 'NONE', ( #194 ) ) ;
#60 = DIRECTION ( 'NONE',  ( 0.0000000000000000000, 1.000000000000000000, 0.0000000000000000000 ) ) ;
#61 = CC_DESIGN_PERSON_AND_ORGANIZATION_ASSIGNMENT ( #104, #136, ( #103 ) ) ;
#62 = ORIENTED_EDGE ( 'NONE', *, *, #171, .F. ) ;
#63 = ORIENTED_EDGE ( 'NONE', *, *, #133, .F. ) ;
#64 = AXIS2_PLACEMENT_3D ( 'NONE', #127, #126, #141 ) ;
#65 = DIRECTION ( 'NONE',  ( 0.0000000000000000000, 1.000000000000000000, 0.0000000000000000000 ) ) ;
#66 = CYLINDRICAL_SURFACE ( 'NONE', #42, 0.4499999999999967359 ) ;
#67 = ORGANIZATION ( 'UNSPECIFIED', 'UNSPECIFIED', '' ) ;
#68 = FACE_OUTER_BOUND ( 'NONE', #59, .T. ) ;
#69 = VERTEX_POINT ( 'NONE', #145 ) ;
#70 = VERTEX_POINT ( 'NONE', #199 ) ;
#71 = SHAPE_DEFINITION_REPRESENTATION ( #174, #39 ) ;
#72 = CALENDAR_DATE ( 2021, 6, 10 ) ;
#73 = APPROVAL_STATUS ( 'not_yet_approved' ) ;
#74 = ORIENTED_EDGE ( 'NONE', *, *, #20, .F. ) ;
#75 = CIRCLE ( 'NONE', #102, 0.4500000000000000111 ) ;
#76 = EDGE_LOOP ( 'NONE', ( #89 ) ) ;
#77 = EDGE_LOOP ( 'NONE', ( #46 ) ) ;
#78 = ORIENTED_EDGE ( 'NONE', *, *, #87, .T. ) ;
#79 = CARTESIAN_POINT ( 'NONE',  ( 0.0000000000000000000, 0.0000000000000000000, 0.0000000000000000000 ) ) ;
#80 = FACE_OUTER_BOUND ( 'NONE', #190, .T. ) ;
#81 = CC_DESIGN_APPROVAL ( #157, ( #117 ) ) ;
#82 = CARTESIAN_POINT ( 'NONE',  ( 2.444036937190193349E-14, 0.4499999999999962919, 7.000000000000000000 ) ) ;
#83 = DIRECTION ( 'NONE',  ( 3.491481338843133355E-15, -1.224646799147353207E-16, 1.000000000000000000 ) ) ;
#84 = CLOSED_SHELL ( 'NONE', ( #180, #99, #28, #143 ) ) ;
#85 = PERSON_AND_ORGANIZATION ( #183, #67 ) ;
#86 = COORDINATED_UNIVERSAL_TIME_OFFSET ( 1, 0, .AHEAD. ) ;
#87 = EDGE_CURVE ( 'NONE', #24, #24, #75, .T. ) ;
#88 = APPROVAL_DATE_TIME ( #167, #9 ) ;
#89 = ORIENTED_EDGE ( 'NONE', *, *, #133, .T. ) ;
#90 = DIRECTION ( 'NONE',  ( -3.491481338843133355E-15, 1.224646799147353207E-16, -1.000000000000000000 ) ) ;
#91 =( GEOMETRIC_REPRESENTATION_CONTEXT ( 3 ) GLOBAL_UNCERTAINTY_ASSIGNED_CONTEXT ( ( #158 ) ) GLOBAL_UNIT_ASSIGNED_CONTEXT ( ( #165, #134, #47 ) ) REPRESENTATION_CONTEXT ( 'NONE', 'WORKASPACE' ) );
#92 = EDGE_LOOP ( 'NONE', ( #44 ) ) ;
#93 = AXIS2_PLACEMENT_3D ( 'NONE', #140, #90, #65 ) ;
#94 = DIRECTION ( 'NONE',  ( -3.491481338843133355E-15, 1.224646799147353207E-16, -1.000000000000000000 ) ) ;
#95 = DIRECTION ( 'NONE',  ( -3.491481338843133355E-15, 1.224646799147353207E-16, -1.000000000000000000 ) ) ;
#96 = APPLICATION_CONTEXT ( 'configuration controlled 3d designs of mechanical parts and assemblies' ) ;
#97 = APPLICATION_PROTOCOL_DEFINITION ( 'international standard', 'config_control_design', 1994, #96 ) ;
#98 = DIRECTION ( 'NONE',  ( -4.279844320860559053E-31, -1.000000000000000000, -1.204669080539459204E-16 ) ) ;
#99 = ADVANCED_FACE ( 'NONE', ( #45, #33 ), #155, .T. ) ;
#100 = PERSON_AND_ORGANIZATION ( #183, #67 ) ;
#101 = CALENDAR_DATE ( 2021, 6, 10 ) ;
#102 = AXIS2_PLACEMENT_3D ( 'NONE', #108, #175, #192 ) ;
#103 = PRODUCT_DEFINITION_FORMATION_WITH_SPECIFIED_SOURCE ( 'ANY', '', #43, .NOT_KNOWN. ) ;
#104 = PERSON_AND_ORGANIZATION ( #183, #67 ) ;
#105 = DATE_AND_TIME ( #30, #34 ) ;
#106 = DIRECTION ( 'NONE',  ( -3.491481338843133355E-15, 1.224646799147353207E-16, -1.000000000000000000 ) ) ;
#107 = CC_DESIGN_DATE_AND_TIME_ASSIGNMENT ( #105, #57, ( #53 ) ) ;
#108 = CARTESIAN_POINT ( 'NONE',  ( 1.043952920314096810E-13, -3.661693929450586610E-15, 29.89999999999999858 ) ) ;
#109 = DIRECTION ( 'NONE',  ( 4.279844320860559053E-31, 1.000000000000000000, 1.204669080539459204E-16 ) ) ;
#110 = DIRECTION ( 'NONE',  ( -3.491481338843133355E-15, 1.224646799147353207E-16, -1.000000000000000000 ) ) ;
#111 = CARTESIAN_POINT ( 'NONE',  ( 2.444036937190193349E-14, 3.374459510989145406E-33, 7.000000000000000000 ) ) ;
#112 = APPLICATION_PROTOCOL_DEFINITION ( 'international standard', 'config_control_design', 1994, #135 ) ;
#113 = AXIS2_PLACEMENT_3D ( 'NONE', #111, #179, #116 ) ;
#114 = APPROVAL_PERSON_ORGANIZATION ( #27, #157, #25 ) ;
#115 = VERTEX_POINT ( 'NONE', #10 ) ;
#116 = DIRECTION ( 'NONE',  ( -4.275831445896958607E-31, -1.000000000000000000, -1.224646799147353207E-16 ) ) ;
#117 = SECURITY_CLASSIFICATION ( '', '', #202 ) ;
#118 = PERSON_AND_ORGANIZATION ( #183, #67 ) ;
#119 = APPROVAL_PERSON_ORGANIZATION ( #182, #150, #7 ) ;
#120 = AXIS2_PLACEMENT_3D ( 'NONE', #123, #110, #60 ) ;
#121 = CC_DESIGN_DATE_AND_TIME_ASSIGNMENT ( #15, #13, ( #117 ) ) ;
#122 = FACE_OUTER_BOUND ( 'NONE', #18, .T. ) ;
#123 = CARTESIAN_POINT ( 'NONE',  ( 1.047444401652940007E-13, -3.673940397442059178E-15, 30.00000000000000000 ) ) ;
#124 = DESIGN_CONTEXT ( 'detailed design', #135, 'design' ) ;
#125 = AXIS2_PLACEMENT_3D ( 'NONE', #156, #94, #159 ) ;
#126 = DIRECTION ( 'NONE',  ( -3.491481338843133355E-15, 1.224646799147353207E-16, -1.000000000000000000 ) ) ;
#127 = CARTESIAN_POINT ( 'NONE',  ( 2.444036937190193349E-14, -8.572527594031473190E-16, 7.000000000000000000 ) ) ;
#128 = PERSON_AND_ORGANIZATION_ROLE ( 'design_owner' ) ;
#129 = CALENDAR_DATE ( 2021, 6, 10 ) ;
#130 = LOCAL_TIME ( 10, 24, 29.00000000000000000, #55 ) ;
#131 = VERTEX_POINT ( 'NONE', #82 ) ;
#132 = MECHANICAL_CONTEXT ( 'NONE', #96, 'mechanical' ) ;
#133 = EDGE_CURVE ( 'NONE', #115, #115, #16, .T. ) ;
#134 =( NAMED_UNIT ( * ) PLANE_ANGLE_UNIT ( ) SI_UNIT ( $, .RADIAN. ) );
#135 = APPLICATION_CONTEXT ( 'configuration controlled 3d designs of mechanical parts and assemblies' ) ;
#136 = PERSON_AND_ORGANIZATION_ROLE ( 'creator' ) ;
#137 = PRODUCT_RELATED_PRODUCT_CATEGORY ( 'detail', '', ( #43 ) ) ;
#138 = EDGE_LOOP ( 'NONE', ( #78 ) ) ;
#139 = DIRECTION ( 'NONE',  ( 4.275831445896958607E-31, 1.000000000000000000, 1.224646799147353207E-16 ) ) ;
#140 = CARTESIAN_POINT ( 'NONE',  ( 2.444036937190193349E-14, -8.572527594031473190E-16, 7.000000000000000000 ) ) ;
#141 = DIRECTION ( 'NONE',  ( 0.0000000000000000000, 1.000000000000000000, 0.0000000000000000000 ) ) ;
#142 = EDGE_LOOP ( 'NONE', ( #62 ) ) ;
#143 = ADVANCED_FACE ( 'NONE', ( #178 ), #173, .F. ) ;
#144 = DIRECTION ( 'NONE',  ( 3.491481338843133355E-15, -1.224646799147353207E-16, 1.000000000000000000 ) ) ;
#145 = CARTESIAN_POINT ( 'NONE',  ( 2.444036937190193349E-14, 0.4499999999999962919, 7.000000000000000000 ) ) ;
#146 = AXIS2_PLACEMENT_3D ( 'NONE', #36, #106, #139 ) ;
#147 = AXIS2_PLACEMENT_3D ( 'NONE', #191, #95, #109 ) ;
#148 = DIRECTION ( 'NONE',  ( -4.275831445896958607E-31, -1.000000000000000000, -1.224646799147353207E-16 ) ) ;
#149 = DATE_AND_TIME ( #101, #177 ) ;
#150 = APPROVAL ( #163, 'UNSPECIFIED' ) ;
#151 = APPROVAL_DATE_TIME ( #149, #157 ) ;
#152 = AXIS2_PLACEMENT_3D ( 'NONE', #196, #48, #185 ) ;
#153 = COORDINATED_UNIVERSAL_TIME_OFFSET ( 1, 0, .AHEAD. ) ;
#154 = ORIENTED_EDGE ( 'NONE', *, *, #20, .T. ) ;
#155 = CYLINDRICAL_SURFACE ( 'NONE', #146, 0.4499999999999985678 ) ;
#156 = CARTESIAN_POINT ( 'NONE',  ( 1.047444401652940007E-13, 2.624579619658195733E-33, 30.00000000000000000 ) ) ;
#157 = APPROVAL ( #73, 'UNSPECIFIED' ) ;
#158 = UNCERTAINTY_MEASURE_WITH_UNIT (LENGTH_MEASURE( 1.000000000000000082E-05 ), #165, 'distance_accuracy_value', 'NONE');
#159 = DIRECTION ( 'NONE',  ( 4.275831445896958607E-31, 1.000000000000000000, 1.224646799147353207E-16 ) ) ;
#160 = EDGE_LOOP ( 'NONE', ( #74 ) ) ;
#161 = FACE_OUTER_BOUND ( 'NONE', #5, .T. ) ;
#162 = ADVANCED_FACE ( 'NONE', ( #19 ), #3, .T. ) ;
#163 = APPROVAL_STATUS ( 'not_yet_approved' ) ;
#164 = PLANE ( 'NONE',  #186 ) ;
#165 =( LENGTH_UNIT ( ) NAMED_UNIT ( * ) SI_UNIT ( .MILLI., .METRE. ) );
#166 = PERSON_AND_ORGANIZATION_ROLE ( 'classification_officer' ) ;
#167 = DATE_AND_TIME ( #201, #130 ) ;
#168 = CC_DESIGN_PERSON_AND_ORGANIZATION_ASSIGNMENT ( #6, #128, ( #43 ) ) ;
#169 = PERSON_AND_ORGANIZATION_ROLE ( 'creator' ) ;
#170 = PERSON_AND_ORGANIZATION_ROLE ( 'design_supplier' ) ;
#171 = EDGE_CURVE ( 'NONE', #70, #70, #40, .T. ) ;
#172 = APPROVAL_STATUS ( 'not_yet_approved' ) ;
#173 = PLANE ( 'NONE',  #125 ) ;
#174 = PRODUCT_DEFINITION_SHAPE ( 'NONE', 'NONE',  #53 ) ;
#175 = DIRECTION ( 'NONE',  ( -3.491481338843133355E-15, 1.224646799147353207E-16, -1.000000000000000000 ) ) ;
#176 = ADVANCED_FACE ( 'NONE', ( #184 ), #17, .T. ) ;
#177 = LOCAL_TIME ( 10, 24, 29.00000000000000000, #86 ) ;
#178 = FACE_OUTER_BOUND ( 'NONE', #142, .T. ) ;
#179 = DIRECTION ( 'NONE',  ( 3.491481338843133355E-15, -1.224646799147353207E-16, 1.000000000000000000 ) ) ;
#180 = ADVANCED_FACE ( 'NONE', ( #68 ), #164, .F. ) ;
#181 = DIRECTION ( 'NONE',  ( 0.0000000000000000000, 0.0000000000000000000, 1.000000000000000000 ) ) ;
#182 = PERSON_AND_ORGANIZATION ( #183, #67 ) ;
#183 = PERSON ( 'UNSPECIFIED', 'UNSPECIFIED', 'UNSPECIFIED', ('UNSPECIFIED'), ('UNSPECIFIED'), ('UNSPECIFIED') ) ;
#184 = FACE_OUTER_BOUND ( 'NONE', #76, .T. ) ;
#185 = DIRECTION ( 'NONE',  ( 0.0000000000000000000, 1.000000000000000000, 0.0000000000000000000 ) ) ;
#186 = AXIS2_PLACEMENT_3D ( 'NONE', #52, #144, #148 ) ;
#187 = COORDINATED_UNIVERSAL_TIME_OFFSET ( 1, 0, .AHEAD. ) ;
#188 = CC_DESIGN_SECURITY_CLASSIFICATION ( #117, ( #103 ) ) ;
#189 = CC_DESIGN_PERSON_AND_ORGANIZATION_ASSIGNMENT ( #85, #166, ( #117 ) ) ;
#190 = EDGE_LOOP ( 'NONE', ( #154 ) ) ;
#191 = CARTESIAN_POINT ( 'NONE',  ( 9.071134608832400566E-16, -3.181725716174731468E-17, 0.2598076211353325116 ) ) ;
#192 = DIRECTION ( 'NONE',  ( 0.0000000000000000000, 1.000000000000000000, 0.0000000000000000000 ) ) ;
#193 = LOCAL_TIME ( 10, 24, 29.00000000000000000, #187 ) ;
#194 = ORIENTED_EDGE ( 'NONE', *, *, #2, .T. ) ;
#195 = ORIENTED_EDGE ( 'NONE', *, *, #87, .F. ) ;
#196 = CARTESIAN_POINT ( 'NONE',  ( 1.047444401652940007E-13, -3.673940397442059178E-15, 30.00000000000000000 ) ) ;
#197 = COORDINATED_UNIVERSAL_TIME_OFFSET ( 1, 0, .AHEAD. ) ;
#198 = LOCAL_TIME ( 10, 24, 29.00000000000000000, #197 ) ;
#199 = CARTESIAN_POINT ( 'NONE',  ( 1.047444401652940007E-13, 0.3499999999999963141, 30.00000000000000000 ) ) ;
#200 = ADVANCED_FACE ( 'NONE', ( #161, #80 ), #66, .T. ) ;
#201 = CALENDAR_DATE ( 2021, 6, 10 ) ;
#202 = SECURITY_CLASSIFICATION_LEVEL ( 'unclassified' ) ;
#203 = CIRCLE ( 'NONE', #93, 0.4499999999999971800 ) ;
ENDSEC;
END-ISO-10303-21;
