ISO-10303-21;
HEADER;
FILE_DESCRIPTION (( 'STEP AP203' ),
    '1' );
FILE_NAME ('206.step',
    '2021-10-06T08:24:28',
    ( '' ),
    ( '' ),
    'SwSTEP 2.0',
    'SolidWorks 2019',
    '' );
FILE_SCHEMA (( 'CONFIG_CONTROL_DESIGN' ));
ENDSEC;

DATA;
#1 = APPROVAL_ROLE ( '' ) ;
#2 = APPROVAL_ROLE ( '' ) ;
#3 = APPROVAL_DATE_TIME ( #158, #185 ) ;
#4 = ADVANCED_BREP_SHAPE_REPRESENTATION ( '206', ( #51, #123, #5 ), #80 ) ;
#5 = AXIS2_PLACEMENT_3D ( 'NONE', #32, #107, #44 ) ;
#6 =( NAMED_UNIT ( * ) SI_UNIT ( $, .STERADIAN. ) SOLID_ANGLE_UNIT ( ) );
#7 = EDGE_LOOP ( 'NONE', ( #10 ) ) ;
#8 = ADVANCED_FACE ( 'NONE', ( #162 ), #96, .T. ) ;
#9 = DIRECTION ( 'NONE',  ( -4.531599869146476816E-31, -1.000000000000000000, -1.275531967630016339E-16 ) ) ;
#10 = ORIENTED_EDGE ( 'NONE', *, *, #78, .F. ) ;
#11 = CC_DESIGN_SECURITY_CLASSIFICATION ( #157, ( #130 ) ) ;
#12 = FACE_OUTER_BOUND ( 'NONE', #24, .T. ) ;
#13 = FACE_OUTER_BOUND ( 'NONE', #66, .T. ) ;
#14 = VERTEX_POINT ( 'NONE', #200 ) ;
#15 = EDGE_CURVE ( 'NONE', #132, #132, #153, .T. ) ;
#16 = AXIS2_PLACEMENT_3D ( 'NONE', #41, #186, #74 ) ;
#17 =( LENGTH_UNIT ( ) NAMED_UNIT ( * ) SI_UNIT ( .MILLI., .METRE. ) );
#18 = FACE_OUTER_BOUND ( 'NONE', #145, .T. ) ;
#19 = CALENDAR_DATE ( 2021, 6, 10 ) ;
#20 = SECURITY_CLASSIFICATION_LEVEL ( 'unclassified' ) ;
#21 = CALENDAR_DATE ( 2021, 6, 10 ) ;
#22 = CIRCLE ( 'NONE', #154, 0.4249999999999963252 ) ;
#23 = CC_DESIGN_PERSON_AND_ORGANIZATION_ASSIGNMENT ( #176, #58, ( #130 ) ) ;
#24 = EDGE_LOOP ( 'NONE', ( #127 ) ) ;
#25 = DIRECTION ( 'NONE',  ( 3.491481338843133355E-15, -1.224646799147353207E-16, 1.000000000000000000 ) ) ;
#26 = FACE_OUTER_BOUND ( 'NONE', #65, .T. ) ;
#27 = PRODUCT_RELATED_PRODUCT_CATEGORY ( 'detail', '', ( #193 ) ) ;
#28 = DIRECTION ( 'NONE',  ( -3.491481338843133355E-15, 1.224646799147353207E-16, -1.000000000000000000 ) ) ;
#29 = AXIS2_PLACEMENT_3D ( 'NONE', #131, #199, #183 ) ;
#30 = DIRECTION ( 'NONE',  ( -3.491481338843133355E-15, 1.224646799147353207E-16, -1.000000000000000000 ) ) ;
#31 = PERSON_AND_ORGANIZATION_ROLE ( 'design_owner' ) ;
#32 = CARTESIAN_POINT ( 'NONE',  ( 0.0000000000000000000, 0.0000000000000000000, 0.0000000000000000000 ) ) ;
#33 = APPROVAL_ROLE ( '' ) ;
#34 = ORIENTED_EDGE ( 'NONE', *, *, #119, .F. ) ;
#35 = AXIS2_PLACEMENT_3D ( 'NONE', #114, #118, #156 ) ;
#36 = EDGE_LOOP ( 'NONE', ( #147 ) ) ;
#37 = PLANE ( 'NONE',  #50 ) ;
#38 = AXIS2_PLACEMENT_3D ( 'NONE', #56, #30, #151 ) ;
#39 = CYLINDRICAL_SURFACE ( 'NONE', #35, 0.4249999999999967693 ) ;
#40 = CARTESIAN_POINT ( 'NONE',  ( 8.567182686119486137E-16, -3.004963176387245051E-17, 0.2453738644055916684 ) ) ;
#41 = CARTESIAN_POINT ( 'NONE',  ( 1.047444401652940007E-13, -3.673940397442059178E-15, 30.00000000000000000 ) ) ;
#42 = DIRECTION ( 'NONE',  ( -4.275831445896958607E-31, -1.000000000000000000, -1.224646799147353207E-16 ) ) ;
#43 = DATE_TIME_ROLE ( 'classification_date' ) ;
#44 = DIRECTION ( 'NONE',  ( 1.000000000000000000, 0.0000000000000000000, 0.0000000000000000000 ) ) ;
#45 = APPROVAL_DATE_TIME ( #122, #49 ) ;
#46 = COORDINATED_UNIVERSAL_TIME_OFFSET ( 1, 0, .AHEAD. ) ;
#47 = ORIENTED_EDGE ( 'NONE', *, *, #15, .F. ) ;
#48 = EDGE_LOOP ( 'NONE', ( #100 ) ) ;
#49 = APPROVAL ( #77, 'UNSPECIFIED' ) ;
#50 = AXIS2_PLACEMENT_3D ( 'NONE', #165, #25, #87 ) ;
#51 = MANIFOLD_SOLID_BREP ( 'Corps-Déplacer/Copier1[1]', #192 ) ;
#52 = FACE_OUTER_BOUND ( 'NONE', #164, .T. ) ;
#53 = VERTEX_POINT ( 'NONE', #182 ) ;
#54 = CARTESIAN_POINT ( 'NONE',  ( 2.444036937190193349E-14, -8.572527594031473190E-16, 7.000000000000000000 ) ) ;
#55 =( NAMED_UNIT ( * ) PLANE_ANGLE_UNIT ( ) SI_UNIT ( $, .RADIAN. ) );
#56 = CARTESIAN_POINT ( 'NONE',  ( 0.0000000000000000000, 0.0000000000000000000, 0.0000000000000000000 ) ) ;
#57 = ORGANIZATION ( 'UNSPECIFIED', 'UNSPECIFIED', '' ) ;
#58 = PERSON_AND_ORGANIZATION_ROLE ( 'creator' ) ;
#59 = COORDINATED_UNIVERSAL_TIME_OFFSET ( 1, 0, .AHEAD. ) ;
#60 = CALENDAR_DATE ( 2021, 6, 10 ) ;
#61 = DATE_AND_TIME ( #137, #62 ) ;
#62 = LOCAL_TIME ( 10, 24, 28.00000000000000000, #189 ) ;
#63 = APPROVAL_DATE_TIME ( #61, #125 ) ;
#64 = CC_DESIGN_DATE_AND_TIME_ASSIGNMENT ( #110, #108, ( #188 ) ) ;
#65 = EDGE_LOOP ( 'NONE', ( #47 ) ) ;
#66 = EDGE_LOOP ( 'NONE', ( #112 ) ) ;
#67 = LOCAL_TIME ( 10, 24, 28.00000000000000000, #160 ) ;
#68 = PRODUCT_DEFINITION_SHAPE ( 'NONE', 'NONE',  #188 ) ;
#69 = CIRCLE ( 'NONE', #29, 0.4249999999999971578 ) ;
#70 = DIRECTION ( 'NONE',  ( -3.491481338843133355E-15, 1.224646799147353207E-16, -1.000000000000000000 ) ) ;
#71 = ADVANCED_FACE ( 'NONE', ( #13, #184 ), #106, .T. ) ;
#72 = DIRECTION ( 'NONE',  ( 0.0000000000000000000, 1.000000000000000000, 0.0000000000000000000 ) ) ;
#73 = PERSON ( 'UNSPECIFIED', 'UNSPECIFIED', 'UNSPECIFIED', ('UNSPECIFIED'), ('UNSPECIFIED'), ('UNSPECIFIED') ) ;
#74 = DIRECTION ( 'NONE',  ( 0.0000000000000000000, 1.000000000000000000, 0.0000000000000000000 ) ) ;
#75 = APPROVAL_STATUS ( 'not_yet_approved' ) ;
#76 = CIRCLE ( 'NONE', #16, 0.3250000000000000111 ) ;
#77 = APPROVAL_STATUS ( 'not_yet_approved' ) ;
#78 = EDGE_CURVE ( 'NONE', #201, #201, #69, .T. ) ;
#79 = APPLICATION_PROTOCOL_DEFINITION ( 'international standard', 'config_control_design', 1994, #90 ) ;
#80 =( GEOMETRIC_REPRESENTATION_CONTEXT ( 3 ) GLOBAL_UNCERTAINTY_ASSIGNED_CONTEXT ( ( #136 ) ) GLOBAL_UNIT_ASSIGNED_CONTEXT ( ( #17, #55, #6 ) ) REPRESENTATION_CONTEXT ( 'NONE', 'WORKASPACE' ) );
#81 = CARTESIAN_POINT ( 'NONE',  ( 8.567182686119486137E-16, -3.004963176387245051E-17, 0.2453738644055916684 ) ) ;
#82 = AXIS2_PLACEMENT_3D ( 'NONE', #180, #203, #42 ) ;
#83 = CC_DESIGN_PERSON_AND_ORGANIZATION_ASSIGNMENT ( #187, #94, ( #188 ) ) ;
#84 = CARTESIAN_POINT ( 'NONE',  ( 2.444036937190193349E-14, 0.4249999999999962697, 7.000000000000000000 ) ) ;
#85 = FACE_OUTER_BOUND ( 'NONE', #178, .T. ) ;
#86 = FACE_OUTER_BOUND ( 'NONE', #36, .T. ) ;
#87 = DIRECTION ( 'NONE',  ( -4.275831445896958607E-31, -1.000000000000000000, -1.224646799147353207E-16 ) ) ;
#88 = LOCAL_TIME ( 10, 24, 28.00000000000000000, #173 ) ;
#89 = DIRECTION ( 'NONE',  ( -3.491481338843133355E-15, 1.224646799147353207E-16, -1.000000000000000000 ) ) ;
#90 = APPLICATION_CONTEXT ( 'configuration controlled 3d designs of mechanical parts and assemblies' ) ;
#91 = PERSON_AND_ORGANIZATION ( #73, #57 ) ;
#92 = ADVANCED_FACE ( 'NONE', ( #52, #86 ), #39, .T. ) ;
#93 = CC_DESIGN_APPROVAL ( #49, ( #157 ) ) ;
#94 = PERSON_AND_ORGANIZATION_ROLE ( 'creator' ) ;
#95 = CALENDAR_DATE ( 2021, 6, 10 ) ;
#96 = CONICAL_SURFACE ( 'NONE', #103, 0.4249999999999963252, 1.047197551196592746 ) ;
#97 = ORIENTED_EDGE ( 'NONE', *, *, #101, .F. ) ;
#98 = ADVANCED_FACE ( 'NONE', ( #26, #18 ), #117, .T. ) ;
#99 = CLOSED_SHELL ( 'NONE', ( #8, #92, #111 ) ) ;
#100 = ORIENTED_EDGE ( 'NONE', *, *, #119, .T. ) ;
#101 = EDGE_CURVE ( 'NONE', #14, #14, #76, .T. ) ;
#102 = CARTESIAN_POINT ( 'NONE',  ( 1.047444401652940007E-13, 2.437109646825463190E-33, 30.00000000000000000 ) ) ;
#103 = AXIS2_PLACEMENT_3D ( 'NONE', #81, #146, #9 ) ;
#104 = CARTESIAN_POINT ( 'NONE',  ( 1.047444401652940007E-13, -3.673940397442059178E-15, 30.00000000000000000 ) ) ;
#105 = DIRECTION ( 'NONE',  ( 4.275831445896958607E-31, 1.000000000000000000, 1.224646799147353207E-16 ) ) ;
#106 = CONICAL_SURFACE ( 'NONE', #175, 0.3250000000000000111, 0.7853981633974512766 ) ;
#107 = DIRECTION ( 'NONE',  ( 0.0000000000000000000, 0.0000000000000000000, 1.000000000000000000 ) ) ;
#108 = DATE_TIME_ROLE ( 'creation_date' ) ;
#109 = SHAPE_DEFINITION_REPRESENTATION ( #68, #4 ) ;
#110 = DATE_AND_TIME ( #21, #149 ) ;
#111 = ADVANCED_FACE ( 'NONE', ( #148 ), #135, .T. ) ;
#112 = ORIENTED_EDGE ( 'NONE', *, *, #163, .F. ) ;
#113 = CC_DESIGN_APPROVAL ( #185, ( #130 ) ) ;
#114 = CARTESIAN_POINT ( 'NONE',  ( 0.0000000000000000000, 0.0000000000000000000, 0.0000000000000000000 ) ) ;
#115 = DIRECTION ( 'NONE',  ( -3.491481338843133355E-15, 1.224646799147353207E-16, -1.000000000000000000 ) ) ;
#116 = DIRECTION ( 'NONE',  ( -3.491481338843133355E-15, 1.224646799147353207E-16, -1.000000000000000000 ) ) ;
#117 = CYLINDRICAL_SURFACE ( 'NONE', #38, 0.4249999999999985456 ) ;
#118 = DIRECTION ( 'NONE',  ( -3.491481338843133355E-15, 1.224646799147353207E-16, -1.000000000000000000 ) ) ;
#119 = EDGE_CURVE ( 'NONE', #152, #152, #22, .T. ) ;
#120 = CIRCLE ( 'NONE', #195, 0.4249999999999999889 ) ;
#121 = PERSON_AND_ORGANIZATION ( #73, #57 ) ;
#122 = DATE_AND_TIME ( #95, #143 ) ;
#123 = MANIFOLD_SOLID_BREP ( 'Corps-Déplacer/Copier1[2]', #99 ) ;
#124 = APPROVAL_STATUS ( 'not_yet_approved' ) ;
#125 = APPROVAL ( #75, 'UNSPECIFIED' ) ;
#126 = APPROVAL_PERSON_ORGANIZATION ( #172, #185, #1 ) ;
#127 = ORIENTED_EDGE ( 'NONE', *, *, #15, .T. ) ;
#128 = EDGE_LOOP ( 'NONE', ( #197 ) ) ;
#129 = CC_DESIGN_PERSON_AND_ORGANIZATION_ASSIGNMENT ( #91, #194, ( #130 ) ) ;
#130 = PRODUCT_DEFINITION_FORMATION_WITH_SPECIFIED_SOURCE ( 'ANY', '', #193, .NOT_KNOWN. ) ;
#131 = CARTESIAN_POINT ( 'NONE',  ( 2.444036937190193349E-14, -8.572527594031473190E-16, 7.000000000000000000 ) ) ;
#132 = VERTEX_POINT ( 'NONE', #84 ) ;
#133 = CC_DESIGN_DATE_AND_TIME_ASSIGNMENT ( #138, #43, ( #157 ) ) ;
#134 = DIRECTION ( 'NONE',  ( 0.0000000000000000000, 1.000000000000000000, 0.0000000000000000000 ) ) ;
#135 = PLANE ( 'NONE',  #82 ) ;
#136 = UNCERTAINTY_MEASURE_WITH_UNIT (LENGTH_MEASURE( 1.000000000000000082E-05 ), #17, 'distance_accuracy_value', 'NONE');
#137 = CALENDAR_DATE ( 2021, 6, 10 ) ;
#138 = DATE_AND_TIME ( #60, #67 ) ;
#139 = PERSON_AND_ORGANIZATION ( #73, #57 ) ;
#140 = CC_DESIGN_PERSON_AND_ORGANIZATION_ASSIGNMENT ( #121, #144, ( #157 ) ) ;
#141 = MECHANICAL_CONTEXT ( 'NONE', #90, 'mechanical' ) ;
#142 = APPLICATION_CONTEXT ( 'configuration controlled 3d designs of mechanical parts and assemblies' ) ;
#143 = LOCAL_TIME ( 10, 24, 28.00000000000000000, #59 ) ;
#144 = PERSON_AND_ORGANIZATION_ROLE ( 'classification_officer' ) ;
#145 = EDGE_LOOP ( 'NONE', ( #196 ) ) ;
#146 = DIRECTION ( 'NONE',  ( 3.491481338843133355E-15, -1.224646799147353207E-16, 1.000000000000000000 ) ) ;
#147 = ORIENTED_EDGE ( 'NONE', *, *, #78, .T. ) ;
#148 = FACE_OUTER_BOUND ( 'NONE', #7, .T. ) ;
#149 = LOCAL_TIME ( 10, 24, 28.00000000000000000, #46 ) ;
#150 = CARTESIAN_POINT ( 'NONE',  ( 2.444036937190193349E-14, 0.4249999999999962697, 7.000000000000000000 ) ) ;
#151 = DIRECTION ( 'NONE',  ( 4.275831445896958607E-31, 1.000000000000000000, 1.224646799147353207E-16 ) ) ;
#152 = VERTEX_POINT ( 'NONE', #170 ) ;
#153 = CIRCLE ( 'NONE', #198, 0.4249999999999971578 ) ;
#154 = AXIS2_PLACEMENT_3D ( 'NONE', #40, #116, #202 ) ;
#155 = ADVANCED_FACE ( 'NONE', ( #12 ), #37, .F. ) ;
#156 = DIRECTION ( 'NONE',  ( 4.275831445896958607E-31, 1.000000000000000000, 1.224646799147353207E-16 ) ) ;
#157 = SECURITY_CLASSIFICATION ( '', '', #20 ) ;
#158 = DATE_AND_TIME ( #19, #88 ) ;
#159 = PERSON_AND_ORGANIZATION ( #73, #57 ) ;
#160 = COORDINATED_UNIVERSAL_TIME_OFFSET ( 1, 0, .AHEAD. ) ;
#161 = ADVANCED_FACE ( 'NONE', ( #85 ), #168, .F. ) ;
#162 = FACE_OUTER_BOUND ( 'NONE', #48, .T. ) ;
#163 = EDGE_CURVE ( 'NONE', #53, #53, #120, .T. ) ;
#164 = EDGE_LOOP ( 'NONE', ( #34 ) ) ;
#165 = CARTESIAN_POINT ( 'NONE',  ( 2.444036937190193349E-14, 3.186989538156413205E-33, 7.000000000000000000 ) ) ;
#166 = CARTESIAN_POINT ( 'NONE',  ( 1.043952920314096810E-13, -3.661693929450586610E-15, 29.89999999999999858 ) ) ;
#167 = DIRECTION ( 'NONE',  ( 0.0000000000000000000, 1.000000000000000000, 0.0000000000000000000 ) ) ;
#168 = PLANE ( 'NONE',  #171 ) ;
#169 = CC_DESIGN_PERSON_AND_ORGANIZATION_ASSIGNMENT ( #159, #31, ( #193 ) ) ;
#170 = CARTESIAN_POINT ( 'NONE',  ( 8.567182686119488109E-16, 0.4249999999999962697, 0.2453738644055917240 ) ) ;
#171 = AXIS2_PLACEMENT_3D ( 'NONE', #102, #89, #105 ) ;
#172 = PERSON_AND_ORGANIZATION ( #73, #57 ) ;
#173 = COORDINATED_UNIVERSAL_TIME_OFFSET ( 1, 0, .AHEAD. ) ;
#174 = APPLICATION_PROTOCOL_DEFINITION ( 'international standard', 'config_control_design', 1994, #142 ) ;
#175 = AXIS2_PLACEMENT_3D ( 'NONE', #104, #115, #134 ) ;
#176 = PERSON_AND_ORGANIZATION ( #73, #57 ) ;
#177 = APPROVAL_PERSON_ORGANIZATION ( #139, #125, #33 ) ;
#178 = EDGE_LOOP ( 'NONE', ( #97 ) ) ;
#179 = CC_DESIGN_APPROVAL ( #125, ( #188 ) ) ;
#180 = CARTESIAN_POINT ( 'NONE',  ( 2.444036937190193349E-14, 3.186989538156413205E-33, 7.000000000000000000 ) ) ;
#181 = APPROVAL_PERSON_ORGANIZATION ( #191, #49, #2 ) ;
#182 = CARTESIAN_POINT ( 'NONE',  ( 1.043952920314096810E-13, 0.4249999999999962697, 29.89999999999999858 ) ) ;
#183 = DIRECTION ( 'NONE',  ( 0.0000000000000000000, 1.000000000000000000, 0.0000000000000000000 ) ) ;
#184 = FACE_BOUND ( 'NONE', #128, .T. ) ;
#185 = APPROVAL ( #124, 'UNSPECIFIED' ) ;
#186 = DIRECTION ( 'NONE',  ( -3.491481338843133355E-15, 1.224646799147353207E-16, -1.000000000000000000 ) ) ;
#187 = PERSON_AND_ORGANIZATION ( #73, #57 ) ;
#188 = PRODUCT_DEFINITION ( 'UNKNOWN', '', #130, #190 ) ;
#189 = COORDINATED_UNIVERSAL_TIME_OFFSET ( 1, 0, .AHEAD. ) ;
#190 = DESIGN_CONTEXT ( 'detailed design', #142, 'design' ) ;
#191 = PERSON_AND_ORGANIZATION ( #73, #57 ) ;
#192 = CLOSED_SHELL ( 'NONE', ( #155, #98, #71, #161 ) ) ;
#193 = PRODUCT ( '206', '206', '', ( #141 ) ) ;
#194 = PERSON_AND_ORGANIZATION_ROLE ( 'design_supplier' ) ;
#195 = AXIS2_PLACEMENT_3D ( 'NONE', #166, #28, #72 ) ;
#196 = ORIENTED_EDGE ( 'NONE', *, *, #163, .T. ) ;
#197 = ORIENTED_EDGE ( 'NONE', *, *, #101, .T. ) ;
#198 = AXIS2_PLACEMENT_3D ( 'NONE', #54, #70, #167 ) ;
#199 = DIRECTION ( 'NONE',  ( -3.491481338843133355E-15, 1.224646799147353207E-16, -1.000000000000000000 ) ) ;
#200 = CARTESIAN_POINT ( 'NONE',  ( 1.047444401652940007E-13, 0.3249999999999962919, 30.00000000000000000 ) ) ;
#201 = VERTEX_POINT ( 'NONE', #150 ) ;
#202 = DIRECTION ( 'NONE',  ( 4.531599869146476816E-31, 1.000000000000000000, 1.275531967630016339E-16 ) ) ;
#203 = DIRECTION ( 'NONE',  ( 3.491481338843133355E-15, -1.224646799147353207E-16, 1.000000000000000000 ) ) ;
ENDSEC;
END-ISO-10303-21;
