ISO-10303-21;
HEADER;
FILE_DESCRIPTION (( 'STEP AP203' ),
    '1' );
FILE_NAME ('205.step',
    '2021-10-06T08:45:45',
    ( '' ),
    ( '' ),
    'SwSTEP 2.0',
    'SolidWorks 2019',
    '' );
FILE_SCHEMA (( 'CONFIG_CONTROL_DESIGN' ));
ENDSEC;

DATA;
#1 = PERSON_AND_ORGANIZATION ( #70, #90 ) ;
#2 = EDGE_LOOP ( 'NONE', ( #19 ) ) ;
#3 = FACE_OUTER_BOUND ( 'NONE', #2, .T. ) ;
#4 = CARTESIAN_POINT ( 'NONE',  ( 0.0000000000000000000, 0.0000000000000000000, 0.0000000000000000000 ) ) ;
#5 = APPROVAL_STATUS ( 'not_yet_approved' ) ;
#6 = CC_DESIGN_APPROVAL ( #132, ( #64 ) ) ;
#7 = DIRECTION ( 'NONE',  ( 0.0000000000000000000, 1.000000000000000000, 0.0000000000000000000 ) ) ;
#8 = CARTESIAN_POINT ( 'NONE',  ( 2.444036937190193349E-14, 2.999519565323681346E-33, 7.000000000000000000 ) ) ;
#9 = ADVANCED_FACE ( 'NONE', ( #3, #47 ), #60, .T. ) ;
#10 = DIRECTION ( 'NONE',  ( -3.491481338843133355E-15, 1.224646799147353207E-16, -1.000000000000000000 ) ) ;
#11 = AXIS2_PLACEMENT_3D ( 'NONE', #144, #39, #41 ) ;
#12 = PERSON_AND_ORGANIZATION_ROLE ( 'creator' ) ;
#13 = CC_DESIGN_PERSON_AND_ORGANIZATION_ASSIGNMENT ( #141, #195, ( #96 ) ) ;
#14 = ORIENTED_EDGE ( 'NONE', *, *, #48, .F. ) ;
#15 = AXIS2_PLACEMENT_3D ( 'NONE', #126, #22, #42 ) ;
#16 = CALENDAR_DATE ( 2021, 6, 10 ) ;
#17 = DATE_AND_TIME ( #190, #184 ) ;
#18 = EDGE_LOOP ( 'NONE', ( #36 ) ) ;
#19 = ORIENTED_EDGE ( 'NONE', *, *, #138, .F. ) ;
#20 = CIRCLE ( 'NONE', #29, 0.4000000000000000777 ) ;
#21 = DIRECTION ( 'NONE',  ( 3.491481338843133355E-15, -1.224646799147353207E-16, 1.000000000000000000 ) ) ;
#22 = DIRECTION ( 'NONE',  ( -3.491481338843133355E-15, 1.224646799147353207E-16, -1.000000000000000000 ) ) ;
#23 = CARTESIAN_POINT ( 'NONE',  ( 8.063230763406571707E-16, -2.828200636599758634E-17, 0.2309401076758508531 ) ) ;
#24 = ADVANCED_FACE ( 'NONE', ( #104, #61 ), #191, .T. ) ;
#25 = CIRCLE ( 'NONE', #57, 0.3999999999999972466 ) ;
#26 = ADVANCED_FACE ( 'NONE', ( #80 ), #162, .T. ) ;
#27 = CARTESIAN_POINT ( 'NONE',  ( 8.063230763406573679E-16, 0.3999999999999964140, 0.2309401076758509086 ) ) ;
#28 = VERTEX_POINT ( 'NONE', #136 ) ;
#29 = AXIS2_PLACEMENT_3D ( 'NONE', #165, #10, #85 ) ;
#30 = APPROVAL_ROLE ( '' ) ;
#31 = APPROVAL_STATUS ( 'not_yet_approved' ) ;
#32 = APPROVAL_STATUS ( 'not_yet_approved' ) ;
#33 = MANIFOLD_SOLID_BREP ( 'Corps-Déplacer/Copier1[1]', #187 ) ;
#34 = CC_DESIGN_DATE_AND_TIME_ASSIGNMENT ( #50, #103, ( #171 ) ) ;
#35 = APPROVAL_ROLE ( '' ) ;
#36 = ORIENTED_EDGE ( 'NONE', *, *, #99, .F. ) ;
#37 = AXIS2_PLACEMENT_3D ( 'NONE', #8, #129, #55 ) ;
#38 = PERSON_AND_ORGANIZATION_ROLE ( 'classification_officer' ) ;
#39 = DIRECTION ( 'NONE',  ( -3.491481338843133355E-15, 1.224646799147353207E-16, -1.000000000000000000 ) ) ;
#40 = MANIFOLD_SOLID_BREP ( 'Corps-Déplacer/Copier1[2]', #158 ) ;
#41 = DIRECTION ( 'NONE',  ( 4.275831445896958607E-31, 1.000000000000000000, 1.224646799147353207E-16 ) ) ;
#42 = DIRECTION ( 'NONE',  ( 0.0000000000000000000, 1.000000000000000000, 0.0000000000000000000 ) ) ;
#43 = FACE_OUTER_BOUND ( 'NONE', #140, .T. ) ;
#44 = CARTESIAN_POINT ( 'NONE',  ( 1.047444401652940007E-13, 0.2999999999999963807, 30.00000000000000000 ) ) ;
#45 = APPLICATION_PROTOCOL_DEFINITION ( 'international standard', 'config_control_design', 1994, #168 ) ;
#46 = COORDINATED_UNIVERSAL_TIME_OFFSET ( 1, 0, .AHEAD. ) ;
#47 = FACE_OUTER_BOUND ( 'NONE', #178, .T. ) ;
#48 = EDGE_CURVE ( 'NONE', #169, #169, #176, .T. ) ;
#49 = AXIS2_PLACEMENT_3D ( 'NONE', #174, #91, #124 ) ;
#50 = DATE_AND_TIME ( #120, #196 ) ;
#51 = DIRECTION ( 'NONE',  ( 4.275831445896958607E-31, 1.000000000000000000, 1.224646799147353207E-16 ) ) ;
#52 = SECURITY_CLASSIFICATION_LEVEL ( 'unclassified' ) ;
#53 = ORIENTED_EDGE ( 'NONE', *, *, #163, .T. ) ;
#54 = CC_DESIGN_SECURITY_CLASSIFICATION ( #64, ( #96 ) ) ;
#55 = DIRECTION ( 'NONE',  ( -4.275831445896958607E-31, -1.000000000000000000, -1.224646799147353207E-16 ) ) ;
#56 = PLANE ( 'NONE',  #11 ) ;
#57 = AXIS2_PLACEMENT_3D ( 'NONE', #181, #145, #7 ) ;
#58 = CARTESIAN_POINT ( 'NONE',  ( 1.043952920314096810E-13, 0.3999999999999964140, 29.89999999999999858 ) ) ;
#59 = DATE_AND_TIME ( #153, #69 ) ;
#60 = CYLINDRICAL_SURFACE ( 'NONE', #83, 0.3999999999999968026 ) ;
#61 = FACE_BOUND ( 'NONE', #160, .T. ) ;
#62 = CC_DESIGN_DATE_AND_TIME_ASSIGNMENT ( #17, #75, ( #64 ) ) ;
#63 = APPROVAL_ROLE ( '' ) ;
#64 = SECURITY_CLASSIFICATION ( '', '', #52 ) ;
#65 = FACE_OUTER_BOUND ( 'NONE', #193, .T. ) ;
#66 = PLANE ( 'NONE',  #92 ) ;
#67 = APPROVAL ( #32, 'UNSPECIFIED' ) ;
#68 =( LENGTH_UNIT ( ) NAMED_UNIT ( * ) SI_UNIT ( .MILLI., .METRE. ) );
#69 = LOCAL_TIME ( 10, 45, 45.00000000000000000, #89 ) ;
#70 = PERSON ( 'UNSPECIFIED', 'UNSPECIFIED', 'UNSPECIFIED', ('UNSPECIFIED'), ('UNSPECIFIED'), ('UNSPECIFIED') ) ;
#71 = EDGE_LOOP ( 'NONE', ( #143 ) ) ;
#72 = PERSON_AND_ORGANIZATION_ROLE ( 'creator' ) ;
#73 = EDGE_LOOP ( 'NONE', ( #121 ) ) ;
#74 = CC_DESIGN_PERSON_AND_ORGANIZATION_ASSIGNMENT ( #117, #12, ( #171 ) ) ;
#75 = DATE_TIME_ROLE ( 'classification_date' ) ;
#76 = ORIENTED_EDGE ( 'NONE', *, *, #48, .T. ) ;
#77 = ORIENTED_EDGE ( 'NONE', *, *, #138, .T. ) ;
#78 = APPROVAL_PERSON_ORGANIZATION ( #1, #67, #35 ) ;
#79 = APPROVAL_DATE_TIME ( #125, #132 ) ;
#80 = FACE_OUTER_BOUND ( 'NONE', #93, .T. ) ;
#81 = CARTESIAN_POINT ( 'NONE',  ( 2.444036937190193349E-14, 2.999519565323681346E-33, 7.000000000000000000 ) ) ;
#82 = DIRECTION ( 'NONE',  ( 4.275831445896958607E-31, 1.000000000000000000, 1.224646799147353207E-16 ) ) ;
#83 = AXIS2_PLACEMENT_3D ( 'NONE', #4, #172, #51 ) ;
#84 = ADVANCED_FACE ( 'NONE', ( #199 ), #56, .F. ) ;
#85 = DIRECTION ( 'NONE',  ( 0.0000000000000000000, 1.000000000000000000, 0.0000000000000000000 ) ) ;
#86 =( NAMED_UNIT ( * ) PLANE_ANGLE_UNIT ( ) SI_UNIT ( $, .RADIAN. ) );
#87 = CIRCLE ( 'NONE', #188, 0.3999999999999964140 ) ;
#88 = DIRECTION ( 'NONE',  ( 0.0000000000000000000, 0.0000000000000000000, 1.000000000000000000 ) ) ;
#89 = COORDINATED_UNIVERSAL_TIME_OFFSET ( 1, 0, .AHEAD. ) ;
#90 = ORGANIZATION ( 'UNSPECIFIED', 'UNSPECIFIED', '' ) ;
#91 = DIRECTION ( 'NONE',  ( -3.491481338843133355E-15, 1.224646799147353207E-16, -1.000000000000000000 ) ) ;
#92 = AXIS2_PLACEMENT_3D ( 'NONE', #81, #21, #130 ) ;
#93 = EDGE_LOOP ( 'NONE', ( #77 ) ) ;
#94 = CC_DESIGN_APPROVAL ( #175, ( #171 ) ) ;
#95 = DIRECTION ( 'NONE',  ( 4.814824860968132547E-31, 1.000000000000000000, 1.355252715606892622E-16 ) ) ;
#96 = PRODUCT_DEFINITION_FORMATION_WITH_SPECIFIED_SOURCE ( 'ANY', '', #149, .NOT_KNOWN. ) ;
#97 = PLANE ( 'NONE',  #37 ) ;
#98 = PERSON_AND_ORGANIZATION ( #70, #90 ) ;
#99 = EDGE_CURVE ( 'NONE', #167, #167, #134, .T. ) ;
#100 = CALENDAR_DATE ( 2021, 6, 10 ) ;
#101 = COORDINATED_UNIVERSAL_TIME_OFFSET ( 1, 0, .AHEAD. ) ;
#102 = CC_DESIGN_PERSON_AND_ORGANIZATION_ASSIGNMENT ( #185, #112, ( #149 ) ) ;
#103 = DATE_TIME_ROLE ( 'creation_date' ) ;
#104 = FACE_OUTER_BOUND ( 'NONE', #73, .T. ) ;
#105 = PERSON_AND_ORGANIZATION ( #70, #90 ) ;
#106 = DESIGN_CONTEXT ( 'detailed design', #113, 'design' ) ;
#107 = CARTESIAN_POINT ( 'NONE',  ( 2.444036937190193349E-14, -8.572527594031473190E-16, 7.000000000000000000 ) ) ;
#108 = SHAPE_DEFINITION_REPRESENTATION ( #131, #128 ) ;
#109 = AXIS2_PLACEMENT_3D ( 'NONE', #107, #180, #179 ) ;
#110 = CYLINDRICAL_SURFACE ( 'NONE', #151, 0.3999999999999986899 ) ;
#111 = MECHANICAL_CONTEXT ( 'NONE', #168, 'mechanical' ) ;
#112 = PERSON_AND_ORGANIZATION_ROLE ( 'design_owner' ) ;
#113 = APPLICATION_CONTEXT ( 'configuration controlled 3d designs of mechanical parts and assemblies' ) ;
#114 = APPROVAL_PERSON_ORGANIZATION ( #142, #132, #63 ) ;
#115 = DATE_AND_TIME ( #16, #139 ) ;
#116 = EDGE_LOOP ( 'NONE', ( #76 ) ) ;
#117 = PERSON_AND_ORGANIZATION ( #70, #90 ) ;
#118 =( GEOMETRIC_REPRESENTATION_CONTEXT ( 3 ) GLOBAL_UNCERTAINTY_ASSIGNED_CONTEXT ( ( #122 ) ) GLOBAL_UNIT_ASSIGNED_CONTEXT ( ( #68, #86, #202 ) ) REPRESENTATION_CONTEXT ( 'NONE', 'WORKASPACE' ) );
#119 = CC_DESIGN_PERSON_AND_ORGANIZATION_ASSIGNMENT ( #157, #72, ( #96 ) ) ;
#120 = CALENDAR_DATE ( 2021, 6, 10 ) ;
#121 = ORIENTED_EDGE ( 'NONE', *, *, #203, .F. ) ;
#122 = UNCERTAINTY_MEASURE_WITH_UNIT (LENGTH_MEASURE( 1.000000000000000082E-05 ), #68, 'distance_accuracy_value', 'NONE');
#123 = AXIS2_PLACEMENT_3D ( 'NONE', #133, #88, #170 ) ;
#124 = DIRECTION ( 'NONE',  ( 0.0000000000000000000, 1.000000000000000000, 0.0000000000000000000 ) ) ;
#125 = DATE_AND_TIME ( #100, #200 ) ;
#126 = CARTESIAN_POINT ( 'NONE',  ( 1.047444401652940007E-13, -3.673940397442059178E-15, 30.00000000000000000 ) ) ;
#127 = CC_DESIGN_APPROVAL ( #67, ( #96 ) ) ;
#128 = ADVANCED_BREP_SHAPE_REPRESENTATION ( '205', ( #33, #40, #123 ), #118 ) ;
#129 = DIRECTION ( 'NONE',  ( 3.491481338843133355E-15, -1.224646799147353207E-16, 1.000000000000000000 ) ) ;
#130 = DIRECTION ( 'NONE',  ( -4.275831445896958607E-31, -1.000000000000000000, -1.224646799147353207E-16 ) ) ;
#131 = PRODUCT_DEFINITION_SHAPE ( 'NONE', 'NONE',  #171 ) ;
#132 = APPROVAL ( #5, 'UNSPECIFIED' ) ;
#133 = CARTESIAN_POINT ( 'NONE',  ( 0.0000000000000000000, 0.0000000000000000000, 0.0000000000000000000 ) ) ;
#134 = CIRCLE ( 'NONE', #15, 0.3000000000000000999 ) ;
#135 = AXIS2_PLACEMENT_3D ( 'NONE', #148, #183, #198 ) ;
#136 = CARTESIAN_POINT ( 'NONE',  ( 2.444036937190193349E-14, 0.3999999999999964140, 7.000000000000000000 ) ) ;
#137 = VERTEX_POINT ( 'NONE', #27 ) ;
#138 = EDGE_CURVE ( 'NONE', #137, #137, #87, .T. ) ;
#139 = LOCAL_TIME ( 10, 45, 45.00000000000000000, #101 ) ;
#140 = EDGE_LOOP ( 'NONE', ( #14 ) ) ;
#141 = PERSON_AND_ORGANIZATION ( #70, #90 ) ;
#142 = PERSON_AND_ORGANIZATION ( #70, #90 ) ;
#143 = ORIENTED_EDGE ( 'NONE', *, *, #163, .F. ) ;
#144 = CARTESIAN_POINT ( 'NONE',  ( 1.047444401652940007E-13, 2.249639673992731674E-33, 30.00000000000000000 ) ) ;
#145 = DIRECTION ( 'NONE',  ( -3.491481338843133355E-15, 1.224646799147353207E-16, -1.000000000000000000 ) ) ;
#146 = PRODUCT_RELATED_PRODUCT_CATEGORY ( 'detail', '', ( #149 ) ) ;
#147 = FACE_OUTER_BOUND ( 'NONE', #116, .T. ) ;
#148 = CARTESIAN_POINT ( 'NONE',  ( 8.063230763406571707E-16, -2.828200636599758634E-17, 0.2309401076758508531 ) ) ;
#149 = PRODUCT ( '205', '205', '', ( #111 ) ) ;
#150 = VERTEX_POINT ( 'NONE', #58 ) ;
#151 = AXIS2_PLACEMENT_3D ( 'NONE', #201, #164, #82 ) ;
#152 = CC_DESIGN_PERSON_AND_ORGANIZATION_ASSIGNMENT ( #105, #38, ( #64 ) ) ;
#153 = CALENDAR_DATE ( 2021, 6, 10 ) ;
#154 = APPROVAL_PERSON_ORGANIZATION ( #98, #175, #30 ) ;
#155 = ADVANCED_FACE ( 'NONE', ( #161 ), #66, .T. ) ;
#156 = APPROVAL_DATE_TIME ( #59, #175 ) ;
#157 = PERSON_AND_ORGANIZATION ( #70, #90 ) ;
#158 = CLOSED_SHELL ( 'NONE', ( #26, #9, #155 ) ) ;
#159 = COORDINATED_UNIVERSAL_TIME_OFFSET ( 1, 0, .AHEAD. ) ;
#160 = EDGE_LOOP ( 'NONE', ( #177 ) ) ;
#161 = FACE_OUTER_BOUND ( 'NONE', #71, .T. ) ;
#162 = CONICAL_SURFACE ( 'NONE', #135, 0.3999999999999964140, 1.047197551196592968 ) ;
#163 = EDGE_CURVE ( 'NONE', #28, #28, #25, .T. ) ;
#164 = DIRECTION ( 'NONE',  ( -3.491481338843133355E-15, 1.224646799147353207E-16, -1.000000000000000000 ) ) ;
#165 = CARTESIAN_POINT ( 'NONE',  ( 1.043952920314096810E-13, -3.661693929450586610E-15, 29.89999999999999858 ) ) ;
#166 = ADVANCED_FACE ( 'NONE', ( #43, #65 ), #110, .T. ) ;
#167 = VERTEX_POINT ( 'NONE', #44 ) ;
#168 = APPLICATION_CONTEXT ( 'configuration controlled 3d designs of mechanical parts and assemblies' ) ;
#169 = VERTEX_POINT ( 'NONE', #189 ) ;
#170 = DIRECTION ( 'NONE',  ( 1.000000000000000000, 0.0000000000000000000, 0.0000000000000000000 ) ) ;
#171 = PRODUCT_DEFINITION ( 'UNKNOWN', '', #96, #106 ) ;
#172 = DIRECTION ( 'NONE',  ( -3.491481338843133355E-15, 1.224646799147353207E-16, -1.000000000000000000 ) ) ;
#173 = APPROVAL_DATE_TIME ( #115, #67 ) ;
#174 = CARTESIAN_POINT ( 'NONE',  ( 1.047444401652940007E-13, -3.673940397442059178E-15, 30.00000000000000000 ) ) ;
#175 = APPROVAL ( #31, 'UNSPECIFIED' ) ;
#176 = CIRCLE ( 'NONE', #109, 0.3999999999999972466 ) ;
#177 = ORIENTED_EDGE ( 'NONE', *, *, #99, .T. ) ;
#178 = EDGE_LOOP ( 'NONE', ( #53 ) ) ;
#179 = DIRECTION ( 'NONE',  ( 0.0000000000000000000, 1.000000000000000000, 0.0000000000000000000 ) ) ;
#180 = DIRECTION ( 'NONE',  ( -3.491481338843133355E-15, 1.224646799147353207E-16, -1.000000000000000000 ) ) ;
#181 = CARTESIAN_POINT ( 'NONE',  ( 2.444036937190193349E-14, -8.572527594031473190E-16, 7.000000000000000000 ) ) ;
#182 = DIRECTION ( 'NONE',  ( -3.491481338843133355E-15, 1.224646799147353207E-16, -1.000000000000000000 ) ) ;
#183 = DIRECTION ( 'NONE',  ( 3.491481338843133355E-15, -1.224646799147353207E-16, 1.000000000000000000 ) ) ;
#184 = LOCAL_TIME ( 10, 45, 45.00000000000000000, #159 ) ;
#185 = PERSON_AND_ORGANIZATION ( #70, #90 ) ;
#186 = APPLICATION_PROTOCOL_DEFINITION ( 'international standard', 'config_control_design', 1994, #113 ) ;
#187 = CLOSED_SHELL ( 'NONE', ( #194, #166, #24, #84 ) ) ;
#188 = AXIS2_PLACEMENT_3D ( 'NONE', #23, #182, #95 ) ;
#189 = CARTESIAN_POINT ( 'NONE',  ( 2.444036937190193349E-14, 0.3999999999999964140, 7.000000000000000000 ) ) ;
#190 = CALENDAR_DATE ( 2021, 6, 10 ) ;
#191 = CONICAL_SURFACE ( 'NONE', #49, 0.3000000000000000999, 0.7853981633974512766 ) ;
#192 = COORDINATED_UNIVERSAL_TIME_OFFSET ( 1, 0, .AHEAD. ) ;
#193 = EDGE_LOOP ( 'NONE', ( #197 ) ) ;
#194 = ADVANCED_FACE ( 'NONE', ( #147 ), #97, .F. ) ;
#195 = PERSON_AND_ORGANIZATION_ROLE ( 'design_supplier' ) ;
#196 = LOCAL_TIME ( 10, 45, 45.00000000000000000, #192 ) ;
#197 = ORIENTED_EDGE ( 'NONE', *, *, #203, .T. ) ;
#198 = DIRECTION ( 'NONE',  ( -4.814824860968132547E-31, -1.000000000000000000, -1.355252715606892622E-16 ) ) ;
#199 = FACE_OUTER_BOUND ( 'NONE', #18, .T. ) ;
#200 = LOCAL_TIME ( 10, 45, 45.00000000000000000, #46 ) ;
#201 = CARTESIAN_POINT ( 'NONE',  ( 0.0000000000000000000, 0.0000000000000000000, 0.0000000000000000000 ) ) ;
#202 =( NAMED_UNIT ( * ) SI_UNIT ( $, .STERADIAN. ) SOLID_ANGLE_UNIT ( ) );
#203 = EDGE_CURVE ( 'NONE', #150, #150, #20, .T. ) ;
ENDSEC;
END-ISO-10303-21;
