ISO-10303-21;
HEADER;
FILE_DESCRIPTION (( 'STEP AP203' ),
    '1' );
FILE_NAME ('204.step',
    '2021-10-06T08:24:26',
    ( '' ),
    ( '' ),
    'SwSTEP 2.0',
    'SolidWorks 2019',
    '' );
FILE_SCHEMA (( 'CONFIG_CONTROL_DESIGN' ));
ENDSEC;

DATA;
#1 = PLANE ( 'NONE',  #180 ) ;
#2 = ORIENTED_EDGE ( 'NONE', *, *, #34, .T. ) ;
#3 = FACE_BOUND ( 'NONE', #24, .T. ) ;
#4 = CARTESIAN_POINT ( 'NONE',  ( 1.043952920314096810E-13, -3.661693929450586610E-15, 29.89999999999999858 ) ) ;
#5 = ORIENTED_EDGE ( 'NONE', *, *, #12, .F. ) ;
#6 = APPROVAL ( #179, 'UNSPECIFIED' ) ;
#7 = AXIS2_PLACEMENT_3D ( 'NONE', #142, #45, #174 ) ;
#8 = DIRECTION ( 'NONE',  ( 0.0000000000000000000, 0.0000000000000000000, 1.000000000000000000 ) ) ;
#9 = ADVANCED_FACE ( 'NONE', ( #184, #3 ), #50, .T. ) ;
#10 = PERSON_AND_ORGANIZATION ( #14, #29 ) ;
#11 = SHAPE_DEFINITION_REPRESENTATION ( #53, #182 ) ;
#12 = EDGE_CURVE ( 'NONE', #161, #161, #202, .T. ) ;
#13 = DIRECTION ( 'NONE',  ( 0.0000000000000000000, 1.000000000000000000, 0.0000000000000000000 ) ) ;
#14 = PERSON ( 'UNSPECIFIED', 'UNSPECIFIED', 'UNSPECIFIED', ('UNSPECIFIED'), ('UNSPECIFIED'), ('UNSPECIFIED') ) ;
#15 = CARTESIAN_POINT ( 'NONE',  ( 1.047444401652940007E-13, -3.673940397442059178E-15, 30.00000000000000000 ) ) ;
#16 = LOCAL_TIME ( 10, 24, 26.00000000000000000, #151 ) ;
#17 = PLANE ( 'NONE',  #163 ) ;
#18 = CARTESIAN_POINT ( 'NONE',  ( 0.0000000000000000000, 0.0000000000000000000, 0.0000000000000000000 ) ) ;
#19 = CARTESIAN_POINT ( 'NONE',  ( 1.043952920314096810E-13, 0.3749999999999963363, 29.89999999999999858 ) ) ;
#20 =( NAMED_UNIT ( * ) PLANE_ANGLE_UNIT ( ) SI_UNIT ( $, .RADIAN. ) );
#21 = CARTESIAN_POINT ( 'NONE',  ( 2.094888803305880013E-14, 2.812049592490949830E-33, 6.000000000000000000 ) ) ;
#22 = CARTESIAN_POINT ( 'NONE',  ( 2.094888803305880013E-14, 0.3749999999999963363, 6.000000000000000000 ) ) ;
#23 = CC_DESIGN_APPROVAL ( #6, ( #201 ) ) ;
#24 = EDGE_LOOP ( 'NONE', ( #101 ) ) ;
#25 = COORDINATED_UNIVERSAL_TIME_OFFSET ( 1, 0, .AHEAD. ) ;
#26 = APPROVAL_ROLE ( '' ) ;
#27 = UNCERTAINTY_MEASURE_WITH_UNIT (LENGTH_MEASURE( 1.000000000000000082E-05 ), #133, 'distance_accuracy_value', 'NONE');
#28 = CARTESIAN_POINT ( 'NONE',  ( 7.559278840693656292E-16, -2.651438096812271909E-17, 0.2165063509461100655 ) ) ;
#29 = ORGANIZATION ( 'UNSPECIFIED', 'UNSPECIFIED', '' ) ;
#30 = FACE_OUTER_BOUND ( 'NONE', #75, .T. ) ;
#31 = EDGE_LOOP ( 'NONE', ( #173 ) ) ;
#32 = DIRECTION ( 'NONE',  ( -5.135813185032679447E-31, -1.000000000000000000, -1.445602896647353461E-16 ) ) ;
#33 = CC_DESIGN_SECURITY_CLASSIFICATION ( #124, ( #201 ) ) ;
#34 = EDGE_CURVE ( 'NONE', #36, #36, #197, .T. ) ;
#35 = DATE_AND_TIME ( #177, #108 ) ;
#36 = VERTEX_POINT ( 'NONE', #166 ) ;
#37 = LOCAL_TIME ( 10, 24, 26.00000000000000000, #25 ) ;
#38 = MECHANICAL_CONTEXT ( 'NONE', #76, 'mechanical' ) ;
#39 = APPROVAL_ROLE ( '' ) ;
#40 = AXIS2_PLACEMENT_3D ( 'NONE', #4, #190, #13 ) ;
#41 = APPROVAL ( #198, 'UNSPECIFIED' ) ;
#42 = PERSON_AND_ORGANIZATION ( #14, #29 ) ;
#43 = EDGE_CURVE ( 'NONE', #195, #195, #94, .T. ) ;
#44 = DIRECTION ( 'NONE',  ( -3.491481338843133355E-15, 1.224646799147353207E-16, -1.000000000000000000 ) ) ;
#45 = DIRECTION ( 'NONE',  ( -3.491481338843133355E-15, 1.224646799147353207E-16, -1.000000000000000000 ) ) ;
#46 = EDGE_LOOP ( 'NONE', ( #59 ) ) ;
#47 = CYLINDRICAL_SURFACE ( 'NONE', #196, 0.3749999999999967248 ) ;
#48 = CC_DESIGN_PERSON_AND_ORGANIZATION_ASSIGNMENT ( #79, #100, ( #165 ) ) ;
#49 = DATE_AND_TIME ( #51, #58 ) ;
#50 = CONICAL_SURFACE ( 'NONE', #82, 0.2750000000000000222, 0.7853981633974512766 ) ;
#51 = CALENDAR_DATE ( 2021, 6, 10 ) ;
#52 = DATE_AND_TIME ( #167, #37 ) ;
#53 = PRODUCT_DEFINITION_SHAPE ( 'NONE', 'NONE',  #154 ) ;
#54 = ORIENTED_EDGE ( 'NONE', *, *, #43, .T. ) ;
#55 = CLOSED_SHELL ( 'NONE', ( #87, #132, #9, #123 ) ) ;
#56 = MANIFOLD_SOLID_BREP ( 'Corps-Déplacer/Copier1[1]', #55 ) ;
#57 = DATE_AND_TIME ( #83, #139 ) ;
#58 = LOCAL_TIME ( 10, 24, 26.00000000000000000, #149 ) ;
#59 = ORIENTED_EDGE ( 'NONE', *, *, #43, .F. ) ;
#60 = DIRECTION ( 'NONE',  ( -3.491481338843133355E-15, 1.224646799147353207E-16, -1.000000000000000000 ) ) ;
#61 = CC_DESIGN_APPROVAL ( #41, ( #154 ) ) ;
#62 = EDGE_LOOP ( 'NONE', ( #54 ) ) ;
#63 = CARTESIAN_POINT ( 'NONE',  ( 2.094888803305880013E-14, 2.812049592490949830E-33, 6.000000000000000000 ) ) ;
#64 = PERSON_AND_ORGANIZATION ( #14, #29 ) ;
#65 = AXIS2_PLACEMENT_3D ( 'NONE', #88, #156, #159 ) ;
#66 = COORDINATED_UNIVERSAL_TIME_OFFSET ( 1, 0, .AHEAD. ) ;
#67 = CARTESIAN_POINT ( 'NONE',  ( 1.047444401652940007E-13, 0.2749999999999963030, 30.00000000000000000 ) ) ;
#68 = DATE_AND_TIME ( #192, #16 ) ;
#69 = APPROVAL_PERSON_ORGANIZATION ( #122, #143, #26 ) ;
#70 = AXIS2_PLACEMENT_3D ( 'NONE', #28, #44, #171 ) ;
#71 = DIRECTION ( 'NONE',  ( 0.0000000000000000000, 1.000000000000000000, 0.0000000000000000000 ) ) ;
#72 = ORIENTED_EDGE ( 'NONE', *, *, #84, .F. ) ;
#73 = FACE_OUTER_BOUND ( 'NONE', #199, .T. ) ;
#74 =( GEOMETRIC_REPRESENTATION_CONTEXT ( 3 ) GLOBAL_UNCERTAINTY_ASSIGNED_CONTEXT ( ( #27 ) ) GLOBAL_UNIT_ASSIGNED_CONTEXT ( ( #133, #20, #134 ) ) REPRESENTATION_CONTEXT ( 'NONE', 'WORKASPACE' ) );
#75 = EDGE_LOOP ( 'NONE', ( #118 ) ) ;
#76 = APPLICATION_CONTEXT ( 'configuration controlled 3d designs of mechanical parts and assemblies' ) ;
#77 = CARTESIAN_POINT ( 'NONE',  ( 2.094888803305880013E-14, -7.347880794884119736E-16, 6.000000000000000000 ) ) ;
#78 = CARTESIAN_POINT ( 'NONE',  ( 0.0000000000000000000, 0.0000000000000000000, 0.0000000000000000000 ) ) ;
#79 = PERSON_AND_ORGANIZATION ( #14, #29 ) ;
#80 = APPROVAL_ROLE ( '' ) ;
#81 = ADVANCED_FACE ( 'NONE', ( #111, #73 ), #47, .T. ) ;
#82 = AXIS2_PLACEMENT_3D ( 'NONE', #130, #146, #71 ) ;
#83 = CALENDAR_DATE ( 2021, 6, 10 ) ;
#84 = EDGE_CURVE ( 'NONE', #193, #193, #145, .T. ) ;
#85 = APPROVAL_DATE_TIME ( #52, #143 ) ;
#86 = APPLICATION_CONTEXT ( 'configuration controlled 3d designs of mechanical parts and assemblies' ) ;
#87 = ADVANCED_FACE ( 'NONE', ( #30 ), #1, .F. ) ;
#88 = CARTESIAN_POINT ( 'NONE',  ( 2.094888803305880013E-14, -7.347880794884119736E-16, 6.000000000000000000 ) ) ;
#89 = AXIS2_PLACEMENT_3D ( 'NONE', #77, #141, #170 ) ;
#90 = DIRECTION ( 'NONE',  ( 3.491481338843133355E-15, -1.224646799147353207E-16, 1.000000000000000000 ) ) ;
#91 = DESIGN_CONTEXT ( 'detailed design', #86, 'design' ) ;
#92 = DIRECTION ( 'NONE',  ( -3.491481338843133355E-15, 1.224646799147353207E-16, -1.000000000000000000 ) ) ;
#93 = FACE_OUTER_BOUND ( 'NONE', #153, .T. ) ;
#94 = CIRCLE ( 'NONE', #40, 0.3750000000000000000 ) ;
#95 = DIRECTION ( 'NONE',  ( 4.275831445896957731E-31, 1.000000000000000000, 1.224646799147352961E-16 ) ) ;
#96 = APPROVAL_DATE_TIME ( #35, #6 ) ;
#97 = CC_DESIGN_PERSON_AND_ORGANIZATION_ASSIGNMENT ( #10, #121, ( #201 ) ) ;
#98 = PERSON_AND_ORGANIZATION_ROLE ( 'creator' ) ;
#99 = VERTEX_POINT ( 'NONE', #67 ) ;
#100 = PERSON_AND_ORGANIZATION_ROLE ( 'design_owner' ) ;
#101 = ORIENTED_EDGE ( 'NONE', *, *, #150, .T. ) ;
#102 = PERSON_AND_ORGANIZATION_ROLE ( 'design_supplier' ) ;
#103 = PRODUCT_RELATED_PRODUCT_CATEGORY ( 'detail', '', ( #165 ) ) ;
#104 = SECURITY_CLASSIFICATION_LEVEL ( 'unclassified' ) ;
#105 = CONICAL_SURFACE ( 'NONE', #119, 0.3749999999999963363, 1.047197551196592746 ) ;
#106 = ORIENTED_EDGE ( 'NONE', *, *, #12, .T. ) ;
#107 = FACE_OUTER_BOUND ( 'NONE', #62, .T. ) ;
#108 = LOCAL_TIME ( 10, 24, 26.00000000000000000, #66 ) ;
#109 = DIRECTION ( 'NONE',  ( 3.491481338843133355E-15, -1.224646799147353207E-16, 1.000000000000000000 ) ) ;
#110 = CC_DESIGN_PERSON_AND_ORGANIZATION_ASSIGNMENT ( #168, #102, ( #201 ) ) ;
#111 = FACE_OUTER_BOUND ( 'NONE', #129, .T. ) ;
#112 = EDGE_LOOP ( 'NONE', ( #106 ) ) ;
#113 = CIRCLE ( 'NONE', #169, 0.2750000000000000222 ) ;
#114 = PERSON_AND_ORGANIZATION ( #14, #29 ) ;
#115 = DIRECTION ( 'NONE',  ( 3.491481338843133355E-15, -1.224646799147353207E-16, 1.000000000000000000 ) ) ;
#116 = APPROVAL_PERSON_ORGANIZATION ( #114, #6, #39 ) ;
#117 = APPLICATION_PROTOCOL_DEFINITION ( 'international standard', 'config_control_design', 1994, #76 ) ;
#118 = ORIENTED_EDGE ( 'NONE', *, *, #84, .T. ) ;
#119 = AXIS2_PLACEMENT_3D ( 'NONE', #187, #109, #32 ) ;
#120 = CC_DESIGN_DATE_AND_TIME_ASSIGNMENT ( #57, #137, ( #124 ) ) ;
#121 = PERSON_AND_ORGANIZATION_ROLE ( 'creator' ) ;
#122 = PERSON_AND_ORGANIZATION ( #14, #29 ) ;
#123 = ADVANCED_FACE ( 'NONE', ( #158 ), #186, .F. ) ;
#124 = SECURITY_CLASSIFICATION ( '', '', #104 ) ;
#125 = DIRECTION ( 'NONE',  ( 4.275831445896957731E-31, 1.000000000000000000, 1.224646799147353207E-16 ) ) ;
#126 = MANIFOLD_SOLID_BREP ( 'Corps-Déplacer/Copier1[2]', #183 ) ;
#127 = DIRECTION ( 'NONE',  ( -4.275831445896958607E-31, -1.000000000000000000, -1.224646799147353207E-16 ) ) ;
#128 = DIRECTION ( 'NONE',  ( 0.0000000000000000000, 1.000000000000000000, 0.0000000000000000000 ) ) ;
#129 = EDGE_LOOP ( 'NONE', ( #5 ) ) ;
#130 = CARTESIAN_POINT ( 'NONE',  ( 1.047444401652940007E-13, -3.673940397442059178E-15, 30.00000000000000000 ) ) ;
#131 = APPROVAL_DATE_TIME ( #68, #41 ) ;
#132 = ADVANCED_FACE ( 'NONE', ( #160, #107 ), #144, .T. ) ;
#133 =( LENGTH_UNIT ( ) NAMED_UNIT ( * ) SI_UNIT ( .MILLI., .METRE. ) );
#134 =( NAMED_UNIT ( * ) SI_UNIT ( $, .STERADIAN. ) SOLID_ANGLE_UNIT ( ) );
#135 = CC_DESIGN_APPROVAL ( #143, ( #124 ) ) ;
#136 = DATE_TIME_ROLE ( 'creation_date' ) ;
#137 = DATE_TIME_ROLE ( 'classification_date' ) ;
#138 = EDGE_LOOP ( 'NONE', ( #72 ) ) ;
#139 = LOCAL_TIME ( 10, 24, 26.00000000000000000, #155 ) ;
#140 = PERSON_AND_ORGANIZATION_ROLE ( 'classification_officer' ) ;
#141 = DIRECTION ( 'NONE',  ( -3.491481338843133355E-15, 1.224646799147353207E-16, -1.000000000000000000 ) ) ;
#142 = CARTESIAN_POINT ( 'NONE',  ( 1.047444401652940007E-13, 2.062169701159999130E-33, 30.00000000000000000 ) ) ;
#143 = APPROVAL ( #181, 'UNSPECIFIED' ) ;
#144 = CYLINDRICAL_SURFACE ( 'NONE', #188, 0.3749999999999985567 ) ;
#145 = CIRCLE ( 'NONE', #65, 0.3749999999999970579 ) ;
#146 = DIRECTION ( 'NONE',  ( -3.491481338843133355E-15, 1.224646799147353207E-16, -1.000000000000000000 ) ) ;
#147 = FACE_OUTER_BOUND ( 'NONE', #112, .T. ) ;
#148 = AXIS2_PLACEMENT_3D ( 'NONE', #78, #8, #152 ) ;
#149 = COORDINATED_UNIVERSAL_TIME_OFFSET ( 1, 0, .AHEAD. ) ;
#150 = EDGE_CURVE ( 'NONE', #99, #99, #113, .T. ) ;
#151 = COORDINATED_UNIVERSAL_TIME_OFFSET ( 1, 0, .AHEAD. ) ;
#152 = DIRECTION ( 'NONE',  ( 1.000000000000000000, 0.0000000000000000000, 0.0000000000000000000 ) ) ;
#153 = EDGE_LOOP ( 'NONE', ( #200 ) ) ;
#154 = PRODUCT_DEFINITION ( 'UNKNOWN', '', #201, #91 ) ;
#155 = COORDINATED_UNIVERSAL_TIME_OFFSET ( 1, 0, .AHEAD. ) ;
#156 = DIRECTION ( 'NONE',  ( -3.491481338843133355E-15, 1.224646799147353207E-16, -1.000000000000000000 ) ) ;
#157 = CC_DESIGN_PERSON_AND_ORGANIZATION_ASSIGNMENT ( #42, #140, ( #124 ) ) ;
#158 = FACE_OUTER_BOUND ( 'NONE', #31, .T. ) ;
#159 = DIRECTION ( 'NONE',  ( 0.0000000000000000000, 1.000000000000000000, 0.0000000000000000000 ) ) ;
#160 = FACE_OUTER_BOUND ( 'NONE', #138, .T. ) ;
#161 = VERTEX_POINT ( 'NONE', #162 ) ;
#162 = CARTESIAN_POINT ( 'NONE',  ( 7.559278840693658264E-16, 0.3749999999999963363, 0.2165063509461101210 ) ) ;
#163 = AXIS2_PLACEMENT_3D ( 'NONE', #21, #115, #178 ) ;
#164 = PERSON_AND_ORGANIZATION ( #14, #29 ) ;
#165 = PRODUCT ( '204', '204', '', ( #38 ) ) ;
#166 = CARTESIAN_POINT ( 'NONE',  ( 2.094888803305880013E-14, 0.3749999999999963363, 6.000000000000000000 ) ) ;
#167 = CALENDAR_DATE ( 2021, 6, 10 ) ;
#168 = PERSON_AND_ORGANIZATION ( #14, #29 ) ;
#169 = AXIS2_PLACEMENT_3D ( 'NONE', #15, #60, #128 ) ;
#170 = DIRECTION ( 'NONE',  ( 0.0000000000000000000, 1.000000000000000000, 0.0000000000000000000 ) ) ;
#171 = DIRECTION ( 'NONE',  ( 5.135813185032679447E-31, 1.000000000000000000, 1.445602896647353461E-16 ) ) ;
#172 = APPROVAL_PERSON_ORGANIZATION ( #164, #41, #80 ) ;
#173 = ORIENTED_EDGE ( 'NONE', *, *, #150, .F. ) ;
#174 = DIRECTION ( 'NONE',  ( 4.275831445896958607E-31, 1.000000000000000000, 1.224646799147353207E-16 ) ) ;
#175 = CC_DESIGN_DATE_AND_TIME_ASSIGNMENT ( #49, #136, ( #154 ) ) ;
#176 = DIRECTION ( 'NONE',  ( -3.491481338843133355E-15, 1.224646799147353207E-16, -1.000000000000000000 ) ) ;
#177 = CALENDAR_DATE ( 2021, 6, 10 ) ;
#178 = DIRECTION ( 'NONE',  ( -4.275831445896958607E-31, -1.000000000000000000, -1.224646799147353207E-16 ) ) ;
#179 = APPROVAL_STATUS ( 'not_yet_approved' ) ;
#180 = AXIS2_PLACEMENT_3D ( 'NONE', #63, #90, #127 ) ;
#181 = APPROVAL_STATUS ( 'not_yet_approved' ) ;
#182 = ADVANCED_BREP_SHAPE_REPRESENTATION ( '204', ( #56, #126, #148 ), #74 ) ;
#183 = CLOSED_SHELL ( 'NONE', ( #185, #81, #203 ) ) ;
#184 = FACE_OUTER_BOUND ( 'NONE', #46, .T. ) ;
#185 = ADVANCED_FACE ( 'NONE', ( #147 ), #105, .T. ) ;
#186 = PLANE ( 'NONE',  #7 ) ;
#187 = CARTESIAN_POINT ( 'NONE',  ( 7.559278840693656292E-16, -2.651438096812271909E-17, 0.2165063509461100655 ) ) ;
#188 = AXIS2_PLACEMENT_3D ( 'NONE', #18, #176, #95 ) ;
#189 = CC_DESIGN_PERSON_AND_ORGANIZATION_ASSIGNMENT ( #64, #98, ( #154 ) ) ;
#190 = DIRECTION ( 'NONE',  ( -3.491481338843133355E-15, 1.224646799147353207E-16, -1.000000000000000000 ) ) ;
#191 = CARTESIAN_POINT ( 'NONE',  ( 0.0000000000000000000, 0.0000000000000000000, 0.0000000000000000000 ) ) ;
#192 = CALENDAR_DATE ( 2021, 6, 10 ) ;
#193 = VERTEX_POINT ( 'NONE', #22 ) ;
#194 = APPLICATION_PROTOCOL_DEFINITION ( 'international standard', 'config_control_design', 1994, #86 ) ;
#195 = VERTEX_POINT ( 'NONE', #19 ) ;
#196 = AXIS2_PLACEMENT_3D ( 'NONE', #191, #92, #125 ) ;
#197 = CIRCLE ( 'NONE', #89, 0.3749999999999970579 ) ;
#198 = APPROVAL_STATUS ( 'not_yet_approved' ) ;
#199 = EDGE_LOOP ( 'NONE', ( #2 ) ) ;
#200 = ORIENTED_EDGE ( 'NONE', *, *, #34, .F. ) ;
#201 = PRODUCT_DEFINITION_FORMATION_WITH_SPECIFIED_SOURCE ( 'ANY', '', #165, .NOT_KNOWN. ) ;
#202 = CIRCLE ( 'NONE', #70, 0.3749999999999963363 ) ;
#203 = ADVANCED_FACE ( 'NONE', ( #93 ), #17, .T. ) ;
ENDSEC;
END-ISO-10303-21;
