ISO-10303-21;
HEADER;
FILE_DESCRIPTION (( 'STEP AP203' ),
    '1' );
FILE_NAME ('203.step',
    '2021-10-06T08:24:25',
    ( '' ),
    ( '' ),
    'SwSTEP 2.0',
    'SolidWorks 2019',
    '' );
FILE_SCHEMA (( 'CONFIG_CONTROL_DESIGN' ));
ENDSEC;

DATA;
#1 = EDGE_CURVE ( 'NONE', #119, #119, #24, .T. ) ;
#2 = EDGE_LOOP ( 'NONE', ( #32 ) ) ;
#3 = PERSON_AND_ORGANIZATION ( #7, #118 ) ;
#4 = CALENDAR_DATE ( 2021, 6, 10 ) ;
#5 = PERSON_AND_ORGANIZATION ( #7, #118 ) ;
#6 = CARTESIAN_POINT ( 'NONE',  ( 2.094888803305880013E-14, 0.3499999999999963696, 6.000000000000000000 ) ) ;
#7 = PERSON ( 'UNSPECIFIED', 'UNSPECIFIED', 'UNSPECIFIED', ('UNSPECIFIED'), ('UNSPECIFIED'), ('UNSPECIFIED') ) ;
#8 = CYLINDRICAL_SURFACE ( 'NONE', #50, 0.3499999999999985345 ) ;
#9 = EDGE_CURVE ( 'NONE', #115, #115, #140, .T. ) ;
#10 = CARTESIAN_POINT ( 'NONE',  ( 7.055326917980737918E-16, -2.474675557024784568E-17, 0.2020725942163691669 ) ) ;
#11 = CARTESIAN_POINT ( 'NONE',  ( 7.055326917980737918E-16, -2.474675557024784568E-17, 0.2020725942163691669 ) ) ;
#12 = AXIS2_PLACEMENT_3D ( 'NONE', #143, #62, #125 ) ;
#13 = PRODUCT_DEFINITION ( 'UNKNOWN', '', #39, #60 ) ;
#14 = FACE_BOUND ( 'NONE', #107, .T. ) ;
#15 = CIRCLE ( 'NONE', #127, 0.3499999999999999778 ) ;
#16 = AXIS2_PLACEMENT_3D ( 'NONE', #198, #197, #57 ) ;
#17 = ORIENTED_EDGE ( 'NONE', *, *, #88, .T. ) ;
#18 = SHAPE_DEFINITION_REPRESENTATION ( #171, #98 ) ;
#19 = CLOSED_SHELL ( 'NONE', ( #170, #116, #61, #156 ) ) ;
#20 = COORDINATED_UNIVERSAL_TIME_OFFSET ( 1, 0, .AHEAD. ) ;
#21 = EDGE_LOOP ( 'NONE', ( #129 ) ) ;
#22 = SECURITY_CLASSIFICATION_LEVEL ( 'unclassified' ) ;
#23 = CARTESIAN_POINT ( 'NONE',  ( 2.094888803305880013E-14, 2.624579619658217971E-33, 6.000000000000000000 ) ) ;
#24 = CIRCLE ( 'NONE', #12, 0.3499999999999971467 ) ;
#25 = DIRECTION ( 'NONE',  ( -3.491481338843133355E-15, 1.224646799147353207E-16, -1.000000000000000000 ) ) ;
#26 = FACE_OUTER_BOUND ( 'NONE', #157, .T. ) ;
#27 = CYLINDRICAL_SURFACE ( 'NONE', #161, 0.3499999999999967581 ) ;
#28 = CIRCLE ( 'NONE', #75, 0.2500000000000000000 ) ;
#29 = APPROVAL_DATE_TIME ( #172, #154 ) ;
#30 =( GEOMETRIC_REPRESENTATION_CONTEXT ( 3 ) GLOBAL_UNCERTAINTY_ASSIGNED_CONTEXT ( ( #43 ) ) GLOBAL_UNIT_ASSIGNED_CONTEXT ( ( #136, #58, #42 ) ) REPRESENTATION_CONTEXT ( 'NONE', 'WORKASPACE' ) );
#31 = DATE_AND_TIME ( #176, #158 ) ;
#32 = ORIENTED_EDGE ( 'NONE', *, *, #88, .F. ) ;
#33 = EDGE_LOOP ( 'NONE', ( #126 ) ) ;
#34 = CALENDAR_DATE ( 2021, 6, 10 ) ;
#35 = COORDINATED_UNIVERSAL_TIME_OFFSET ( 1, 0, .AHEAD. ) ;
#36 = DIRECTION ( 'NONE',  ( -4.275831445896958607E-31, -1.000000000000000000, -1.224646799147353207E-16 ) ) ;
#37 = DIRECTION ( 'NONE',  ( 4.275831445896958607E-31, 1.000000000000000000, 1.224646799147353207E-16 ) ) ;
#38 = DIRECTION ( 'NONE',  ( 5.502656983963588312E-31, 1.000000000000000000, 1.548860246407879607E-16 ) ) ;
#39 = PRODUCT_DEFINITION_FORMATION_WITH_SPECIFIED_SOURCE ( 'ANY', '', #74, .NOT_KNOWN. ) ;
#40 = PLANE ( 'NONE',  #105 ) ;
#41 = CARTESIAN_POINT ( 'NONE',  ( 0.0000000000000000000, 0.0000000000000000000, 0.0000000000000000000 ) ) ;
#42 =( NAMED_UNIT ( * ) SI_UNIT ( $, .STERADIAN. ) SOLID_ANGLE_UNIT ( ) );
#43 = UNCERTAINTY_MEASURE_WITH_UNIT (LENGTH_MEASURE( 1.000000000000000082E-05 ), #136, 'distance_accuracy_value', 'NONE');
#44 = PERSON_AND_ORGANIZATION ( #7, #118 ) ;
#45 = MANIFOLD_SOLID_BREP ( 'Corps-Déplacer/Copier1[2]', #94 ) ;
#46 = DATE_AND_TIME ( #191, #145 ) ;
#47 = ORIENTED_EDGE ( 'NONE', *, *, #9, .T. ) ;
#48 = DATE_TIME_ROLE ( 'creation_date' ) ;
#49 = EDGE_LOOP ( 'NONE', ( #17 ) ) ;
#50 = AXIS2_PLACEMENT_3D ( 'NONE', #41, #69, #37 ) ;
#51 = DIRECTION ( 'NONE',  ( 0.0000000000000000000, 1.000000000000000000, 0.0000000000000000000 ) ) ;
#52 = MANIFOLD_SOLID_BREP ( 'Corps-Déplacer/Copier1[1]', #19 ) ;
#53 = CARTESIAN_POINT ( 'NONE',  ( 2.094888803305880013E-14, -7.347880794884119736E-16, 6.000000000000000000 ) ) ;
#54 = CC_DESIGN_APPROVAL ( #160, ( #13 ) ) ;
#55 = FACE_OUTER_BOUND ( 'NONE', #33, .T. ) ;
#56 = ADVANCED_FACE ( 'NONE', ( #150, #168 ), #27, .T. ) ;
#57 = DIRECTION ( 'NONE',  ( 1.000000000000000000, 0.0000000000000000000, 0.0000000000000000000 ) ) ;
#58 =( NAMED_UNIT ( * ) PLANE_ANGLE_UNIT ( ) SI_UNIT ( $, .RADIAN. ) );
#59 = APPROVAL ( #188, 'UNSPECIFIED' ) ;
#60 = DESIGN_CONTEXT ( 'detailed design', #200, 'design' ) ;
#61 = ADVANCED_FACE ( 'NONE', ( #139, #14 ), #112, .T. ) ;
#62 = DIRECTION ( 'NONE',  ( -3.491481338843133355E-15, 1.224646799147353207E-16, -1.000000000000000000 ) ) ;
#63 = APPROVAL_STATUS ( 'not_yet_approved' ) ;
#64 = ADVANCED_FACE ( 'NONE', ( #26 ), #73, .T. ) ;
#65 = DATE_AND_TIME ( #34, #149 ) ;
#66 = APPROVAL_PERSON_ORGANIZATION ( #5, #154, #179 ) ;
#67 = CARTESIAN_POINT ( 'NONE',  ( 1.043952920314096810E-13, 0.3499999999999963141, 29.89999999999999858 ) ) ;
#68 = CARTESIAN_POINT ( 'NONE',  ( 1.043952920314096810E-13, -3.661693929450586610E-15, 29.89999999999999858 ) ) ;
#69 = DIRECTION ( 'NONE',  ( -3.491481338843133355E-15, 1.224646799147353207E-16, -1.000000000000000000 ) ) ;
#70 = AXIS2_PLACEMENT_3D ( 'NONE', #53, #184, #165 ) ;
#71 = CARTESIAN_POINT ( 'NONE',  ( 1.047444401652940007E-13, -3.673940397442059178E-15, 30.00000000000000000 ) ) ;
#72 = CARTESIAN_POINT ( 'NONE',  ( 1.047444401652940007E-13, -3.673940397442059178E-15, 30.00000000000000000 ) ) ;
#73 = CONICAL_SURFACE ( 'NONE', #141, 0.3499999999999963696, 1.047197551196592968 ) ;
#74 = PRODUCT ( '203', '203', '', ( #87 ) ) ;
#75 = AXIS2_PLACEMENT_3D ( 'NONE', #72, #99, #51 ) ;
#76 = ADVANCED_FACE ( 'NONE', ( #55 ), #151, .T. ) ;
#77 = EDGE_LOOP ( 'NONE', ( #177 ) ) ;
#78 = COORDINATED_UNIVERSAL_TIME_OFFSET ( 1, 0, .AHEAD. ) ;
#79 = AXIS2_PLACEMENT_3D ( 'NONE', #181, #192, #36 ) ;
#80 = COORDINATED_UNIVERSAL_TIME_OFFSET ( 1, 0, .AHEAD. ) ;
#81 = PERSON_AND_ORGANIZATION_ROLE ( 'design_owner' ) ;
#82 = FACE_OUTER_BOUND ( 'NONE', #21, .T. ) ;
#83 = VERTEX_POINT ( 'NONE', #67 ) ;
#84 = DIRECTION ( 'NONE',  ( 4.275831445896958607E-31, 1.000000000000000000, 1.224646799147353207E-16 ) ) ;
#85 = FACE_OUTER_BOUND ( 'NONE', #49, .T. ) ;
#86 = CARTESIAN_POINT ( 'NONE',  ( 7.055326917980739890E-16, 0.3499999999999963696, 0.2020725942163692224 ) ) ;
#87 = MECHANICAL_CONTEXT ( 'NONE', #104, 'mechanical' ) ;
#88 = EDGE_CURVE ( 'NONE', #148, #148, #100, .T. ) ;
#89 = ORIENTED_EDGE ( 'NONE', *, *, #9, .F. ) ;
#90 = PERSON_AND_ORGANIZATION_ROLE ( 'classification_officer' ) ;
#91 = PERSON_AND_ORGANIZATION ( #7, #118 ) ;
#92 = EDGE_LOOP ( 'NONE', ( #144 ) ) ;
#93 = APPROVAL_DATE_TIME ( #65, #59 ) ;
#94 = CLOSED_SHELL ( 'NONE', ( #64, #56, #76 ) ) ;
#95 = EDGE_LOOP ( 'NONE', ( #89 ) ) ;
#96 = DATE_TIME_ROLE ( 'classification_date' ) ;
#97 = FACE_OUTER_BOUND ( 'NONE', #2, .T. ) ;
#98 = ADVANCED_BREP_SHAPE_REPRESENTATION ( '203', ( #52, #45, #16 ), #30 ) ;
#99 = DIRECTION ( 'NONE',  ( -3.491481338843133355E-15, 1.224646799147353207E-16, -1.000000000000000000 ) ) ;
#100 = CIRCLE ( 'NONE', #70, 0.3499999999999971467 ) ;
#101 = DIRECTION ( 'NONE',  ( -3.491481338843133355E-15, 1.224646799147353207E-16, -1.000000000000000000 ) ) ;
#102 = CARTESIAN_POINT ( 'NONE',  ( 0.0000000000000000000, 0.0000000000000000000, 0.0000000000000000000 ) ) ;
#103 = CARTESIAN_POINT ( 'NONE',  ( 1.047444401652940007E-13, 1.874699728327266587E-33, 30.00000000000000000 ) ) ;
#104 = APPLICATION_CONTEXT ( 'configuration controlled 3d designs of mechanical parts and assemblies' ) ;
#105 = AXIS2_PLACEMENT_3D ( 'NONE', #23, #195, #169 ) ;
#106 = CC_DESIGN_DATE_AND_TIME_ASSIGNMENT ( #131, #48, ( #13 ) ) ;
#107 = EDGE_LOOP ( 'NONE', ( #163 ) ) ;
#108 = CALENDAR_DATE ( 2021, 6, 10 ) ;
#109 = APPROVAL_ROLE ( '' ) ;
#110 = PERSON_AND_ORGANIZATION ( #7, #118 ) ;
#111 = APPROVAL_DATE_TIME ( #31, #160 ) ;
#112 = CONICAL_SURFACE ( 'NONE', #166, 0.2500000000000000000, 0.7853981633974512766 ) ;
#113 = LOCAL_TIME ( 10, 24, 25.00000000000000000, #80 ) ;
#114 = CARTESIAN_POINT ( 'NONE',  ( 2.094888803305880013E-14, 0.3499999999999963696, 6.000000000000000000 ) ) ;
#115 = VERTEX_POINT ( 'NONE', #86 ) ;
#116 = ADVANCED_FACE ( 'NONE', ( #97, #183 ), #8, .T. ) ;
#117 = DIRECTION ( 'NONE',  ( -3.491481338843133355E-15, 1.224646799147353207E-16, -1.000000000000000000 ) ) ;
#118 = ORGANIZATION ( 'UNSPECIFIED', 'UNSPECIFIED', '' ) ;
#119 = VERTEX_POINT ( 'NONE', #114 ) ;
#120 = DIRECTION ( 'NONE',  ( 0.0000000000000000000, 1.000000000000000000, 0.0000000000000000000 ) ) ;
#121 = APPLICATION_PROTOCOL_DEFINITION ( 'international standard', 'config_control_design', 1994, #104 ) ;
#122 = CC_DESIGN_PERSON_AND_ORGANIZATION_ASSIGNMENT ( #128, #187, ( #39 ) ) ;
#123 = CC_DESIGN_SECURITY_CLASSIFICATION ( #199, ( #39 ) ) ;
#124 = APPLICATION_PROTOCOL_DEFINITION ( 'international standard', 'config_control_design', 1994, #200 ) ;
#125 = DIRECTION ( 'NONE',  ( 0.0000000000000000000, 1.000000000000000000, 0.0000000000000000000 ) ) ;
#126 = ORIENTED_EDGE ( 'NONE', *, *, #1, .F. ) ;
#127 = AXIS2_PLACEMENT_3D ( 'NONE', #68, #137, #164 ) ;
#128 = PERSON_AND_ORGANIZATION ( #7, #118 ) ;
#129 = ORIENTED_EDGE ( 'NONE', *, *, #135, .F. ) ;
#130 = EDGE_CURVE ( 'NONE', #83, #83, #15, .T. ) ;
#131 = DATE_AND_TIME ( #4, #113 ) ;
#132 = ORIENTED_EDGE ( 'NONE', *, *, #130, .T. ) ;
#133 = APPROVAL_PERSON_ORGANIZATION ( #110, #160, #109 ) ;
#134 = VERTEX_POINT ( 'NONE', #193 ) ;
#135 = EDGE_CURVE ( 'NONE', #134, #134, #28, .T. ) ;
#136 =( LENGTH_UNIT ( ) NAMED_UNIT ( * ) SI_UNIT ( .MILLI., .METRE. ) );
#137 = DIRECTION ( 'NONE',  ( -3.491481338843133355E-15, 1.224646799147353207E-16, -1.000000000000000000 ) ) ;
#138 = LOCAL_TIME ( 10, 24, 25.00000000000000000, #147 ) ;
#139 = FACE_OUTER_BOUND ( 'NONE', #92, .T. ) ;
#140 = CIRCLE ( 'NONE', #202, 0.3499999999999963696 ) ;
#141 = AXIS2_PLACEMENT_3D ( 'NONE', #10, #196, #167 ) ;
#142 = CC_DESIGN_PERSON_AND_ORGANIZATION_ASSIGNMENT ( #162, #90, ( #199 ) ) ;
#143 = CARTESIAN_POINT ( 'NONE',  ( 2.094888803305880013E-14, -7.347880794884119736E-16, 6.000000000000000000 ) ) ;
#144 = ORIENTED_EDGE ( 'NONE', *, *, #130, .F. ) ;
#145 = LOCAL_TIME ( 10, 24, 25.00000000000000000, #20 ) ;
#146 = APPROVAL_STATUS ( 'not_yet_approved' ) ;
#147 = COORDINATED_UNIVERSAL_TIME_OFFSET ( 1, 0, .AHEAD. ) ;
#148 = VERTEX_POINT ( 'NONE', #6 ) ;
#149 = LOCAL_TIME ( 10, 24, 25.00000000000000000, #35 ) ;
#150 = FACE_OUTER_BOUND ( 'NONE', #95, .T. ) ;
#151 = PLANE ( 'NONE',  #79 ) ;
#152 = PLANE ( 'NONE',  #203 ) ;
#153 = DIRECTION ( 'NONE',  ( 4.275831445896958607E-31, 1.000000000000000000, 1.224646799147353207E-16 ) ) ;
#154 = APPROVAL ( #63, 'UNSPECIFIED' ) ;
#155 = APPROVAL_PERSON_ORGANIZATION ( #178, #59, #159 ) ;
#156 = ADVANCED_FACE ( 'NONE', ( #82 ), #152, .F. ) ;
#157 = EDGE_LOOP ( 'NONE', ( #47 ) ) ;
#158 = LOCAL_TIME ( 10, 24, 25.00000000000000000, #78 ) ;
#159 = APPROVAL_ROLE ( '' ) ;
#160 = APPROVAL ( #146, 'UNSPECIFIED' ) ;
#161 = AXIS2_PLACEMENT_3D ( 'NONE', #102, #182, #153 ) ;
#162 = PERSON_AND_ORGANIZATION ( #7, #118 ) ;
#163 = ORIENTED_EDGE ( 'NONE', *, *, #135, .T. ) ;
#164 = DIRECTION ( 'NONE',  ( 0.0000000000000000000, 1.000000000000000000, 0.0000000000000000000 ) ) ;
#165 = DIRECTION ( 'NONE',  ( 0.0000000000000000000, 1.000000000000000000, 0.0000000000000000000 ) ) ;
#166 = AXIS2_PLACEMENT_3D ( 'NONE', #71, #101, #120 ) ;
#167 = DIRECTION ( 'NONE',  ( -5.502656983963588312E-31, -1.000000000000000000, -1.548860246407879607E-16 ) ) ;
#168 = FACE_OUTER_BOUND ( 'NONE', #77, .T. ) ;
#169 = DIRECTION ( 'NONE',  ( -4.275831445896958607E-31, -1.000000000000000000, -1.224646799147353207E-16 ) ) ;
#170 = ADVANCED_FACE ( 'NONE', ( #85 ), #40, .F. ) ;
#171 = PRODUCT_DEFINITION_SHAPE ( 'NONE', 'NONE',  #13 ) ;
#172 = DATE_AND_TIME ( #108, #138 ) ;
#173 = CC_DESIGN_APPROVAL ( #59, ( #39 ) ) ;
#174 = PRODUCT_RELATED_PRODUCT_CATEGORY ( 'detail', '', ( #74 ) ) ;
#175 = EDGE_LOOP ( 'NONE', ( #132 ) ) ;
#176 = CALENDAR_DATE ( 2021, 6, 10 ) ;
#177 = ORIENTED_EDGE ( 'NONE', *, *, #1, .T. ) ;
#178 = PERSON_AND_ORGANIZATION ( #7, #118 ) ;
#179 = APPROVAL_ROLE ( '' ) ;
#180 = CC_DESIGN_PERSON_AND_ORGANIZATION_ASSIGNMENT ( #44, #189, ( #13 ) ) ;
#181 = CARTESIAN_POINT ( 'NONE',  ( 2.094888803305880013E-14, 2.624579619658217971E-33, 6.000000000000000000 ) ) ;
#182 = DIRECTION ( 'NONE',  ( -3.491481338843133355E-15, 1.224646799147353207E-16, -1.000000000000000000 ) ) ;
#183 = FACE_OUTER_BOUND ( 'NONE', #175, .T. ) ;
#184 = DIRECTION ( 'NONE',  ( -3.491481338843133355E-15, 1.224646799147353207E-16, -1.000000000000000000 ) ) ;
#185 = CC_DESIGN_APPROVAL ( #154, ( #199 ) ) ;
#186 = PERSON_AND_ORGANIZATION_ROLE ( 'creator' ) ;
#187 = PERSON_AND_ORGANIZATION_ROLE ( 'design_supplier' ) ;
#188 = APPROVAL_STATUS ( 'not_yet_approved' ) ;
#189 = PERSON_AND_ORGANIZATION_ROLE ( 'creator' ) ;
#190 = CC_DESIGN_PERSON_AND_ORGANIZATION_ASSIGNMENT ( #91, #186, ( #39 ) ) ;
#191 = CALENDAR_DATE ( 2021, 6, 10 ) ;
#192 = DIRECTION ( 'NONE',  ( 3.491481338843133355E-15, -1.224646799147353207E-16, 1.000000000000000000 ) ) ;
#193 = CARTESIAN_POINT ( 'NONE',  ( 1.047444401652940007E-13, 0.2499999999999963085, 30.00000000000000000 ) ) ;
#194 = CC_DESIGN_PERSON_AND_ORGANIZATION_ASSIGNMENT ( #3, #81, ( #74 ) ) ;
#195 = DIRECTION ( 'NONE',  ( 3.491481338843133355E-15, -1.224646799147353207E-16, 1.000000000000000000 ) ) ;
#196 = DIRECTION ( 'NONE',  ( 3.491481338843133355E-15, -1.224646799147353207E-16, 1.000000000000000000 ) ) ;
#197 = DIRECTION ( 'NONE',  ( 0.0000000000000000000, 0.0000000000000000000, 1.000000000000000000 ) ) ;
#198 = CARTESIAN_POINT ( 'NONE',  ( 0.0000000000000000000, 0.0000000000000000000, 0.0000000000000000000 ) ) ;
#199 = SECURITY_CLASSIFICATION ( '', '', #22 ) ;
#200 = APPLICATION_CONTEXT ( 'configuration controlled 3d designs of mechanical parts and assemblies' ) ;
#201 = CC_DESIGN_DATE_AND_TIME_ASSIGNMENT ( #46, #96, ( #199 ) ) ;
#202 = AXIS2_PLACEMENT_3D ( 'NONE', #11, #117, #38 ) ;
#203 = AXIS2_PLACEMENT_3D ( 'NONE', #103, #25, #84 ) ;
ENDSEC;
END-ISO-10303-21;
