ISO-10303-21;
HEADER;
FILE_DESCRIPTION (( 'STEP AP203' ),
    '1' );
FILE_NAME ('202.step',
    '2021-10-06T08:24:24',
    ( '' ),
    ( '' ),
    'SwSTEP 2.0',
    'SolidWorks 2019',
    '' );
FILE_SCHEMA (( 'CONFIG_CONTROL_DESIGN' ));
ENDSEC;

DATA;
#1 = CALENDAR_DATE ( 2021, 6, 10 ) ;
#2 = VERTEX_POINT ( 'NONE', #126 ) ;
#3 = DATE_AND_TIME ( #140, #147 ) ;
#4 = AXIS2_PLACEMENT_3D ( 'NONE', #118, #202, #25 ) ;
#5 = CIRCLE ( 'NONE', #4, 0.3249999999999970690 ) ;
#6 = EDGE_CURVE ( 'NONE', #45, #45, #94, .T. ) ;
#7 = PERSON ( 'UNSPECIFIED', 'UNSPECIFIED', 'UNSPECIFIED', ('UNSPECIFIED'), ('UNSPECIFIED'), ('UNSPECIFIED') ) ;
#8 = ORIENTED_EDGE ( 'NONE', *, *, #24, .T. ) ;
#9 = CIRCLE ( 'NONE', #16, 0.3249999999999962919 ) ;
#10 = EDGE_LOOP ( 'NONE', ( #52 ) ) ;
#11 = DIRECTION ( 'NONE',  ( -3.491481338843133355E-15, 1.224646799147353207E-16, -1.000000000000000000 ) ) ;
#12 = FACE_OUTER_BOUND ( 'NONE', #180, .T. ) ;
#13 = FACE_OUTER_BOUND ( 'NONE', #131, .T. ) ;
#14 = DIRECTION ( 'NONE',  ( -2.962969145211166002E-31, -1.000000000000000000, -8.340016711427052663E-17 ) ) ;
#15 = EDGE_CURVE ( 'NONE', #119, #119, #9, .T. ) ;
#16 = AXIS2_PLACEMENT_3D ( 'NONE', #135, #101, #44 ) ;
#17 = DIRECTION ( 'NONE',  ( 0.0000000000000000000, 1.000000000000000000, 0.0000000000000000000 ) ) ;
#18 = DATE_AND_TIME ( #156, #23 ) ;
#19 = PERSON_AND_ORGANIZATION ( #7, #27 ) ;
#20 = PERSON_AND_ORGANIZATION_ROLE ( 'design_owner' ) ;
#21 = PERSON_AND_ORGANIZATION ( #7, #27 ) ;
#22 =( NAMED_UNIT ( * ) SI_UNIT ( $, .STERADIAN. ) SOLID_ANGLE_UNIT ( ) );
#23 = LOCAL_TIME ( 10, 24, 24.00000000000000000, #90 ) ;
#24 = EDGE_CURVE ( 'NONE', #31, #31, #5, .T. ) ;
#25 = DIRECTION ( 'NONE',  ( 0.0000000000000000000, 1.000000000000000000, 0.0000000000000000000 ) ) ;
#26 = FACE_OUTER_BOUND ( 'NONE', #196, .T. ) ;
#27 = ORGANIZATION ( 'UNSPECIFIED', 'UNSPECIFIED', '' ) ;
#28 = DIRECTION ( 'NONE',  ( 4.275831445896958607E-31, 1.000000000000000000, 1.224646799147353207E-16 ) ) ;
#29 = CARTESIAN_POINT ( 'NONE',  ( 0.0000000000000000000, 0.0000000000000000000, 0.0000000000000000000 ) ) ;
#30 = PRODUCT_RELATED_PRODUCT_CATEGORY ( 'detail', '', ( #162 ) ) ;
#31 = VERTEX_POINT ( 'NONE', #87 ) ;
#32 = CLOSED_SHELL ( 'NONE', ( #191, #142, #103, #65 ) ) ;
#33 = AXIS2_PLACEMENT_3D ( 'NONE', #124, #57, #28 ) ;
#34 = DIRECTION ( 'NONE',  ( 0.0000000000000000000, 0.0000000000000000000, 1.000000000000000000 ) ) ;
#35 = EDGE_CURVE ( 'NONE', #153, #153, #129, .T. ) ;
#36 = APPROVAL_STATUS ( 'not_yet_approved' ) ;
#37 = CC_DESIGN_APPROVAL ( #85, ( #197 ) ) ;
#38 = CC_DESIGN_PERSON_AND_ORGANIZATION_ASSIGNMENT ( #125, #192, ( #69 ) ) ;
#39 = EDGE_LOOP ( 'NONE', ( #146 ) ) ;
#40 = AXIS2_PLACEMENT_3D ( 'NONE', #189, #133, #134 ) ;
#41 = CONICAL_SURFACE ( 'NONE', #74, 0.3249999999999962919, 1.047197551196592746 ) ;
#42 = DIRECTION ( 'NONE',  ( -3.491481338843133355E-15, 1.224646799147353207E-16, -1.000000000000000000 ) ) ;
#43 = DIRECTION ( 'NONE',  ( 0.0000000000000000000, 1.000000000000000000, 0.0000000000000000000 ) ) ;
#44 = DIRECTION ( 'NONE',  ( 2.962969145211166002E-31, 1.000000000000000000, 8.340016711427052663E-17 ) ) ;
#45 = VERTEX_POINT ( 'NONE', #171 ) ;
#46 =( NAMED_UNIT ( * ) PLANE_ANGLE_UNIT ( ) SI_UNIT ( $, .RADIAN. ) );
#47 = PERSON_AND_ORGANIZATION_ROLE ( 'design_supplier' ) ;
#48 = CLOSED_SHELL ( 'NONE', ( #176, #130, #97 ) ) ;
#49 = APPROVAL_STATUS ( 'not_yet_approved' ) ;
#50 = CALENDAR_DATE ( 2021, 6, 10 ) ;
#51 = AXIS2_PLACEMENT_3D ( 'NONE', #170, #198, #83 ) ;
#52 = ORIENTED_EDGE ( 'NONE', *, *, #6, .F. ) ;
#53 = EDGE_LOOP ( 'NONE', ( #185 ) ) ;
#54 = CC_DESIGN_APPROVAL ( #77, ( #89 ) ) ;
#55 = CC_DESIGN_DATE_AND_TIME_ASSIGNMENT ( #64, #137, ( #197 ) ) ;
#56 = MANIFOLD_SOLID_BREP ( 'Corps-Déplacer/Copier1[2]', #48 ) ;
#57 = DIRECTION ( 'NONE',  ( -3.491481338843133355E-15, 1.224646799147353207E-16, -1.000000000000000000 ) ) ;
#58 = CARTESIAN_POINT ( 'NONE',  ( 6.551374995267825461E-16, -2.297913017237298767E-17, 0.1876388374866284348 ) ) ;
#59 = EDGE_CURVE ( 'NONE', #2, #2, #155, .T. ) ;
#60 = PLANE ( 'NONE',  #100 ) ;
#61 = DIRECTION ( 'NONE',  ( -3.491481338843133355E-15, 1.224646799147353207E-16, -1.000000000000000000 ) ) ;
#62 = FACE_OUTER_BOUND ( 'NONE', #10, .T. ) ;
#63 = COORDINATED_UNIVERSAL_TIME_OFFSET ( 1, 0, .AHEAD. ) ;
#64 = DATE_AND_TIME ( #50, #144 ) ;
#65 = ADVANCED_FACE ( 'NONE', ( #62 ), #169, .F. ) ;
#66 = PERSON_AND_ORGANIZATION ( #7, #27 ) ;
#67 = APPLICATION_PROTOCOL_DEFINITION ( 'international standard', 'config_control_design', 1994, #80 ) ;
#68 = COORDINATED_UNIVERSAL_TIME_OFFSET ( 1, 0, .AHEAD. ) ;
#69 = PRODUCT_DEFINITION_FORMATION_WITH_SPECIFIED_SOURCE ( 'ANY', '', #162, .NOT_KNOWN. ) ;
#70 = DIRECTION ( 'NONE',  ( 4.275831445896958607E-31, 1.000000000000000000, 1.224646799147353207E-16 ) ) ;
#71 = FACE_OUTER_BOUND ( 'NONE', #39, .T. ) ;
#72 = CYLINDRICAL_SURFACE ( 'NONE', #40, 0.3249999999999985123 ) ;
#73 = CARTESIAN_POINT ( 'NONE',  ( 1.043952920314096810E-13, -3.661693929450586610E-15, 29.89999999999999858 ) ) ;
#74 = AXIS2_PLACEMENT_3D ( 'NONE', #58, #86, #14 ) ;
#75 = FACE_BOUND ( 'NONE', #145, .T. ) ;
#76 = PERSON_AND_ORGANIZATION_ROLE ( 'creator' ) ;
#77 = APPROVAL ( #36, 'UNSPECIFIED' ) ;
#78 = APPROVAL_DATE_TIME ( #174, #166 ) ;
#79 = COORDINATED_UNIVERSAL_TIME_OFFSET ( 1, 0, .AHEAD. ) ;
#80 = APPLICATION_CONTEXT ( 'configuration controlled 3d designs of mechanical parts and assemblies' ) ;
#81 = LOCAL_TIME ( 10, 24, 24.00000000000000000, #95 ) ;
#82 = DIRECTION ( 'NONE',  ( -4.275831445896958607E-31, -1.000000000000000000, -1.224646799147353207E-16 ) ) ;
#83 = DIRECTION ( 'NONE',  ( 0.0000000000000000000, 1.000000000000000000, 0.0000000000000000000 ) ) ;
#84 = FACE_OUTER_BOUND ( 'NONE', #104, .T. ) ;
#85 = APPROVAL ( #195, 'UNSPECIFIED' ) ;
#86 = DIRECTION ( 'NONE',  ( 3.491481338843133355E-15, -1.224646799147353207E-16, 1.000000000000000000 ) ) ;
#87 = CARTESIAN_POINT ( 'NONE',  ( 2.094888803305880013E-14, 0.3249999999999962919, 6.000000000000000000 ) ) ;
#88 = APPROVAL_PERSON_ORGANIZATION ( #175, #77, #93 ) ;
#89 = SECURITY_CLASSIFICATION ( '', '', #91 ) ;
#90 = COORDINATED_UNIVERSAL_TIME_OFFSET ( 1, 0, .AHEAD. ) ;
#91 = SECURITY_CLASSIFICATION_LEVEL ( 'unclassified' ) ;
#92 = DIRECTION ( 'NONE',  ( 1.000000000000000000, 0.0000000000000000000, 0.0000000000000000000 ) ) ;
#93 = APPROVAL_ROLE ( '' ) ;
#94 = CIRCLE ( 'NONE', #177, 0.2250000000000000056 ) ;
#95 = COORDINATED_UNIVERSAL_TIME_OFFSET ( 1, 0, .AHEAD. ) ;
#96 = ADVANCED_BREP_SHAPE_REPRESENTATION ( '202', ( #120, #56, #184 ), #154 ) ;
#97 = ADVANCED_FACE ( 'NONE', ( #84 ), #187, .T. ) ;
#98 = APPROVAL_DATE_TIME ( #112, #77 ) ;
#99 = CALENDAR_DATE ( 2021, 6, 10 ) ;
#100 = AXIS2_PLACEMENT_3D ( 'NONE', #121, #201, #123 ) ;
#101 = DIRECTION ( 'NONE',  ( -3.491481338843133355E-15, 1.224646799147353207E-16, -1.000000000000000000 ) ) ;
#102 = CARTESIAN_POINT ( 'NONE',  ( 2.094888803305880013E-14, 2.437109646825485428E-33, 6.000000000000000000 ) ) ;
#103 = ADVANCED_FACE ( 'NONE', ( #26, #75 ), #117, .T. ) ;
#104 = EDGE_LOOP ( 'NONE', ( #114 ) ) ;
#105 = CC_DESIGN_SECURITY_CLASSIFICATION ( #89, ( #69 ) ) ;
#106 = DIRECTION ( 'NONE',  ( 0.0000000000000000000, 1.000000000000000000, 0.0000000000000000000 ) ) ;
#107 = CC_DESIGN_PERSON_AND_ORGANIZATION_ASSIGNMENT ( #66, #76, ( #197 ) ) ;
#108 = AXIS2_PLACEMENT_3D ( 'NONE', #73, #42, #106 ) ;
#109 = PERSON_AND_ORGANIZATION ( #7, #27 ) ;
#110 = DATE_TIME_ROLE ( 'classification_date' ) ;
#111 = APPROVAL_DATE_TIME ( #18, #85 ) ;
#112 = DATE_AND_TIME ( #99, #139 ) ;
#113 = ORIENTED_EDGE ( 'NONE', *, *, #15, .F. ) ;
#114 = ORIENTED_EDGE ( 'NONE', *, *, #24, .F. ) ;
#115 = PRODUCT_DEFINITION_SHAPE ( 'NONE', 'NONE',  #197 ) ;
#116 = AXIS2_PLACEMENT_3D ( 'NONE', #102, #190, #82 ) ;
#117 = CONICAL_SURFACE ( 'NONE', #51, 0.2250000000000000056, 0.7853981633974512766 ) ;
#118 = CARTESIAN_POINT ( 'NONE',  ( 2.094888803305880013E-14, -7.347880794884119736E-16, 6.000000000000000000 ) ) ;
#119 = VERTEX_POINT ( 'NONE', #186 ) ;
#120 = MANIFOLD_SOLID_BREP ( 'Corps-Déplacer/Copier1[1]', #32 ) ;
#121 = CARTESIAN_POINT ( 'NONE',  ( 2.094888803305880013E-14, 2.437109646825485428E-33, 6.000000000000000000 ) ) ;
#122 = AXIS2_PLACEMENT_3D ( 'NONE', #150, #168, #17 ) ;
#123 = DIRECTION ( 'NONE',  ( -4.275831445896958607E-31, -1.000000000000000000, -1.224646799147353207E-16 ) ) ;
#124 = CARTESIAN_POINT ( 'NONE',  ( 1.047444401652940007E-13, 1.687229755494534386E-33, 30.00000000000000000 ) ) ;
#125 = PERSON_AND_ORGANIZATION ( #7, #27 ) ;
#126 = CARTESIAN_POINT ( 'NONE',  ( 1.043952920314096810E-13, 0.3249999999999962919, 29.89999999999999858 ) ) ;
#127 = PERSON_AND_ORGANIZATION ( #7, #27 ) ;
#128 = DESIGN_CONTEXT ( 'detailed design', #80, 'design' ) ;
#129 = CIRCLE ( 'NONE', #122, 0.3249999999999970690 ) ;
#130 = ADVANCED_FACE ( 'NONE', ( #167, #12 ), #149, .T. ) ;
#131 = EDGE_LOOP ( 'NONE', ( #160 ) ) ;
#132 = APPROVAL_PERSON_ORGANIZATION ( #127, #166, #178 ) ;
#133 = DIRECTION ( 'NONE',  ( -3.491481338843133355E-15, 1.224646799147353207E-16, -1.000000000000000000 ) ) ;
#134 = DIRECTION ( 'NONE',  ( 4.275831445896958607E-31, 1.000000000000000000, 1.224646799147353207E-16 ) ) ;
#135 = CARTESIAN_POINT ( 'NONE',  ( 6.551374995267825461E-16, -2.297913017237298767E-17, 0.1876388374866284348 ) ) ;
#136 = FACE_OUTER_BOUND ( 'NONE', #148, .T. ) ;
#137 = DATE_TIME_ROLE ( 'creation_date' ) ;
#138 = PERSON_AND_ORGANIZATION_ROLE ( 'classification_officer' ) ;
#139 = LOCAL_TIME ( 10, 24, 24.00000000000000000, #68 ) ;
#140 = CALENDAR_DATE ( 2021, 6, 10 ) ;
#141 = APPLICATION_PROTOCOL_DEFINITION ( 'international standard', 'config_control_design', 1994, #181 ) ;
#142 = ADVANCED_FACE ( 'NONE', ( #13, #136 ), #72, .T. ) ;
#143 = PERSON_AND_ORGANIZATION ( #7, #27 ) ;
#144 = LOCAL_TIME ( 10, 24, 24.00000000000000000, #79 ) ;
#145 = EDGE_LOOP ( 'NONE', ( #183 ) ) ;
#146 = ORIENTED_EDGE ( 'NONE', *, *, #15, .T. ) ;
#147 = LOCAL_TIME ( 10, 24, 24.00000000000000000, #63 ) ;
#148 = EDGE_LOOP ( 'NONE', ( #179 ) ) ;
#149 = CYLINDRICAL_SURFACE ( 'NONE', #165, 0.3249999999999966804 ) ;
#150 = CARTESIAN_POINT ( 'NONE',  ( 2.094888803305880013E-14, -7.347880794884119736E-16, 6.000000000000000000 ) ) ;
#151 = CARTESIAN_POINT ( 'NONE',  ( 1.047444401652940007E-13, -3.673940397442059178E-15, 30.00000000000000000 ) ) ;
#152 = CC_DESIGN_DATE_AND_TIME_ASSIGNMENT ( #3, #110, ( #89 ) ) ;
#153 = VERTEX_POINT ( 'NONE', #158 ) ;
#154 =( GEOMETRIC_REPRESENTATION_CONTEXT ( 3 ) GLOBAL_UNCERTAINTY_ASSIGNED_CONTEXT ( ( #173 ) ) GLOBAL_UNIT_ASSIGNED_CONTEXT ( ( #157, #46, #22 ) ) REPRESENTATION_CONTEXT ( 'NONE', 'WORKASPACE' ) );
#155 = CIRCLE ( 'NONE', #108, 0.3250000000000000111 ) ;
#156 = CALENDAR_DATE ( 2021, 6, 10 ) ;
#157 =( LENGTH_UNIT ( ) NAMED_UNIT ( * ) SI_UNIT ( .MILLI., .METRE. ) );
#158 = CARTESIAN_POINT ( 'NONE',  ( 2.094888803305880013E-14, 0.3249999999999962919, 6.000000000000000000 ) ) ;
#159 = CARTESIAN_POINT ( 'NONE',  ( 0.0000000000000000000, 0.0000000000000000000, 0.0000000000000000000 ) ) ;
#160 = ORIENTED_EDGE ( 'NONE', *, *, #35, .F. ) ;
#161 = EDGE_LOOP ( 'NONE', ( #113 ) ) ;
#162 = PRODUCT ( '202', '202', '', ( #193 ) ) ;
#163 = SHAPE_DEFINITION_REPRESENTATION ( #115, #96 ) ;
#164 = ORIENTED_EDGE ( 'NONE', *, *, #59, .F. ) ;
#165 = AXIS2_PLACEMENT_3D ( 'NONE', #29, #11, #70 ) ;
#166 = APPROVAL ( #49, 'UNSPECIFIED' ) ;
#167 = FACE_OUTER_BOUND ( 'NONE', #161, .T. ) ;
#168 = DIRECTION ( 'NONE',  ( -3.491481338843133355E-15, 1.224646799147353207E-16, -1.000000000000000000 ) ) ;
#169 = PLANE ( 'NONE',  #33 ) ;
#170 = CARTESIAN_POINT ( 'NONE',  ( 1.047444401652940007E-13, -3.673940397442059178E-15, 30.00000000000000000 ) ) ;
#171 = CARTESIAN_POINT ( 'NONE',  ( 1.047444401652940007E-13, 0.2249999999999963141, 30.00000000000000000 ) ) ;
#172 = APPROVAL_ROLE ( '' ) ;
#173 = UNCERTAINTY_MEASURE_WITH_UNIT (LENGTH_MEASURE( 1.000000000000000082E-05 ), #157, 'distance_accuracy_value', 'NONE');
#174 = DATE_AND_TIME ( #1, #81 ) ;
#175 = PERSON_AND_ORGANIZATION ( #7, #27 ) ;
#176 = ADVANCED_FACE ( 'NONE', ( #71 ), #41, .T. ) ;
#177 = AXIS2_PLACEMENT_3D ( 'NONE', #151, #61, #43 ) ;
#178 = APPROVAL_ROLE ( '' ) ;
#179 = ORIENTED_EDGE ( 'NONE', *, *, #59, .T. ) ;
#180 = EDGE_LOOP ( 'NONE', ( #8 ) ) ;
#181 = APPLICATION_CONTEXT ( 'configuration controlled 3d designs of mechanical parts and assemblies' ) ;
#182 = APPROVAL_PERSON_ORGANIZATION ( #19, #85, #172 ) ;
#183 = ORIENTED_EDGE ( 'NONE', *, *, #6, .T. ) ;
#184 = AXIS2_PLACEMENT_3D ( 'NONE', #159, #34, #92 ) ;
#185 = ORIENTED_EDGE ( 'NONE', *, *, #35, .T. ) ;
#186 = CARTESIAN_POINT ( 'NONE',  ( 6.551374995267826447E-16, 0.3249999999999962919, 0.1876388374866284625 ) ) ;
#187 = PLANE ( 'NONE',  #116 ) ;
#188 = CC_DESIGN_APPROVAL ( #166, ( #69 ) ) ;
#189 = CARTESIAN_POINT ( 'NONE',  ( 0.0000000000000000000, 0.0000000000000000000, 0.0000000000000000000 ) ) ;
#190 = DIRECTION ( 'NONE',  ( 3.491481338843133355E-15, -1.224646799147353207E-16, 1.000000000000000000 ) ) ;
#191 = ADVANCED_FACE ( 'NONE', ( #200 ), #60, .F. ) ;
#192 = PERSON_AND_ORGANIZATION_ROLE ( 'creator' ) ;
#193 = MECHANICAL_CONTEXT ( 'NONE', #181, 'mechanical' ) ;
#194 = CC_DESIGN_PERSON_AND_ORGANIZATION_ASSIGNMENT ( #109, #138, ( #89 ) ) ;
#195 = APPROVAL_STATUS ( 'not_yet_approved' ) ;
#196 = EDGE_LOOP ( 'NONE', ( #164 ) ) ;
#197 = PRODUCT_DEFINITION ( 'UNKNOWN', '', #69, #128 ) ;
#198 = DIRECTION ( 'NONE',  ( -3.491481338843133355E-15, 1.224646799147353207E-16, -1.000000000000000000 ) ) ;
#199 = CC_DESIGN_PERSON_AND_ORGANIZATION_ASSIGNMENT ( #21, #47, ( #69 ) ) ;
#200 = FACE_OUTER_BOUND ( 'NONE', #53, .T. ) ;
#201 = DIRECTION ( 'NONE',  ( 3.491481338843133355E-15, -1.224646799147353207E-16, 1.000000000000000000 ) ) ;
#202 = DIRECTION ( 'NONE',  ( -3.491481338843133355E-15, 1.224646799147353207E-16, -1.000000000000000000 ) ) ;
#203 = CC_DESIGN_PERSON_AND_ORGANIZATION_ASSIGNMENT ( #143, #20, ( #162 ) ) ;
ENDSEC;
END-ISO-10303-21;
