ISO-10303-21;
HEADER;
FILE_DESCRIPTION (( 'STEP AP203' ),
    '1' );
FILE_NAME ('201.step',
    '2021-10-06T08:24:23',
    ( '' ),
    ( '' ),
    'SwSTEP 2.0',
    'SolidWorks 2019',
    '' );
FILE_SCHEMA (( 'CONFIG_CONTROL_DESIGN' ));
ENDSEC;

DATA;
#1 = PRODUCT_DEFINITION_SHAPE ( 'NONE', 'NONE',  #19 ) ;
#2 = PRODUCT_DEFINITION_FORMATION_WITH_SPECIFIED_SOURCE ( 'ANY', '', #184, .NOT_KNOWN. ) ;
#3 = EDGE_LOOP ( 'NONE', ( #77 ) ) ;
#4 = VERTEX_POINT ( 'NONE', #67 ) ;
#5 = DIRECTION ( 'NONE',  ( 0.0000000000000000000, 1.000000000000000000, 0.0000000000000000000 ) ) ;
#6 = EDGE_CURVE ( 'NONE', #4, #4, #115, .T. ) ;
#7 = FACE_BOUND ( 'NONE', #49, .T. ) ;
#8 = CARTESIAN_POINT ( 'NONE',  ( 0.0000000000000000000, 0.0000000000000000000, 0.0000000000000000000 ) ) ;
#9 = ADVANCED_FACE ( 'NONE', ( #90, #176 ), #36, .T. ) ;
#10 = PERSON_AND_ORGANIZATION ( #133, #151 ) ;
#11 = COORDINATED_UNIVERSAL_TIME_OFFSET ( 1, 0, .AHEAD. ) ;
#12 = DIRECTION ( 'NONE',  ( 0.0000000000000000000, 0.0000000000000000000, 1.000000000000000000 ) ) ;
#13 = PERSON_AND_ORGANIZATION ( #133, #151 ) ;
#14 = APPROVAL_PERSON_ORGANIZATION ( #181, #190, #198 ) ;
#15 = UNCERTAINTY_MEASURE_WITH_UNIT (LENGTH_MEASURE( 1.000000000000000082E-05 ), #140, 'distance_accuracy_value', 'NONE');
#16 = APPROVAL_ROLE ( '' ) ;
#17 = SHAPE_DEFINITION_REPRESENTATION ( #1, #119 ) ;
#18 = AXIS2_PLACEMENT_3D ( 'NONE', #8, #118, #163 ) ;
#19 = PRODUCT_DEFINITION ( 'UNKNOWN', '', #2, #171 ) ;
#20 = DIRECTION ( 'NONE',  ( 4.275831445896958607E-31, 1.000000000000000000, 1.224646799147353207E-16 ) ) ;
#21 = AXIS2_PLACEMENT_3D ( 'NONE', #147, #130, #70 ) ;
#22 = CARTESIAN_POINT ( 'NONE',  ( 6.047423072554909059E-16, -2.121150477449812042E-17, 0.1732050807568875916 ) ) ;
#23 = CARTESIAN_POINT ( 'NONE',  ( 0.0000000000000000000, 0.0000000000000000000, 0.0000000000000000000 ) ) ;
#24 = CC_DESIGN_PERSON_AND_ORGANIZATION_ASSIGNMENT ( #44, #58, ( #2 ) ) ;
#25 = PLANE ( 'NONE',  #168 ) ;
#26 = FACE_OUTER_BOUND ( 'NONE', #191, .T. ) ;
#27 = CC_DESIGN_PERSON_AND_ORGANIZATION_ASSIGNMENT ( #126, #92, ( #184 ) ) ;
#28 = SECURITY_CLASSIFICATION ( '', '', #111 ) ;
#29 = CALENDAR_DATE ( 2021, 6, 10 ) ;
#30 = ADVANCED_FACE ( 'NONE', ( #35 ), #25, .F. ) ;
#31 = DATE_AND_TIME ( #186, #196 ) ;
#32 = CIRCLE ( 'NONE', #54, 0.2999999999999970468 ) ;
#33 = DIRECTION ( 'NONE',  ( 4.275831445896959482E-31, 1.000000000000000000, 1.224646799147353207E-16 ) ) ;
#34 = CC_DESIGN_APPROVAL ( #190, ( #2 ) ) ;
#35 = FACE_OUTER_BOUND ( 'NONE', #3, .T. ) ;
#36 = CYLINDRICAL_SURFACE ( 'NONE', #18, 0.2999999999999984901 ) ;
#37 = CC_DESIGN_SECURITY_CLASSIFICATION ( #28, ( #2 ) ) ;
#38 = DIRECTION ( 'NONE',  ( -3.491481338843133355E-15, 1.224646799147353207E-16, -1.000000000000000000 ) ) ;
#39 = PERSON_AND_ORGANIZATION ( #133, #151 ) ;
#40 = MECHANICAL_CONTEXT ( 'NONE', #148, 'mechanical' ) ;
#41 = ADVANCED_FACE ( 'NONE', ( #162 ), #116, .T. ) ;
#42 = MANIFOLD_SOLID_BREP ( 'Corps-Déplacer/Copier1[2]', #164 ) ;
#43 = VERTEX_POINT ( 'NONE', #197 ) ;
#44 = PERSON_AND_ORGANIZATION ( #133, #151 ) ;
#45 = LOCAL_TIME ( 10, 24, 23.00000000000000000, #98 ) ;
#46 = AXIS2_PLACEMENT_3D ( 'NONE', #179, #85, #173 ) ;
#47 = ORIENTED_EDGE ( 'NONE', *, *, #145, .T. ) ;
#48 = ORIENTED_EDGE ( 'NONE', *, *, #66, .T. ) ;
#49 = EDGE_LOOP ( 'NONE', ( #47 ) ) ;
#50 = AXIS2_PLACEMENT_3D ( 'NONE', #23, #193, #33 ) ;
#51 = DIRECTION ( 'NONE',  ( 3.491481338843133355E-15, -1.224646799147353207E-16, 1.000000000000000000 ) ) ;
#52 = CARTESIAN_POINT ( 'NONE',  ( 1.047444401652940007E-13, -3.673940397442059178E-15, 30.00000000000000000 ) ) ;
#53 = EDGE_LOOP ( 'NONE', ( #96 ) ) ;
#54 = AXIS2_PLACEMENT_3D ( 'NONE', #102, #177, #165 ) ;
#55 = PERSON_AND_ORGANIZATION ( #133, #151 ) ;
#56 = ADVANCED_FACE ( 'NONE', ( #87, #7 ), #174, .T. ) ;
#57 =( NAMED_UNIT ( * ) SI_UNIT ( $, .STERADIAN. ) SOLID_ANGLE_UNIT ( ) );
#58 = PERSON_AND_ORGANIZATION_ROLE ( 'design_supplier' ) ;
#59 = EDGE_LOOP ( 'NONE', ( #153 ) ) ;
#60 = VERTEX_POINT ( 'NONE', #166 ) ;
#61 = EDGE_LOOP ( 'NONE', ( #142 ) ) ;
#62 = EDGE_LOOP ( 'NONE', ( #80 ) ) ;
#63 = CIRCLE ( 'NONE', #46, 0.2999999999999970468 ) ;
#64 = AXIS2_PLACEMENT_3D ( 'NONE', #105, #121, #161 ) ;
#65 = CARTESIAN_POINT ( 'NONE',  ( 2.094888803305880013E-14, 2.249639673992753227E-33, 6.000000000000000000 ) ) ;
#66 = EDGE_CURVE ( 'NONE', #203, #203, #63, .T. ) ;
#67 = CARTESIAN_POINT ( 'NONE',  ( 1.043952920314096810E-13, 0.2999999999999962697, 29.89999999999999858 ) ) ;
#68 = APPROVAL ( #72, 'UNSPECIFIED' ) ;
#69 = DIRECTION ( 'NONE',  ( -3.209883240645433084E-31, -1.000000000000000000, -9.035018104045982860E-17 ) ) ;
#70 = DIRECTION ( 'NONE',  ( -4.275831445896958607E-31, -1.000000000000000000, -1.224646799147353207E-16 ) ) ;
#71 = CC_DESIGN_DATE_AND_TIME_ASSIGNMENT ( #31, #81, ( #28 ) ) ;
#72 = APPROVAL_STATUS ( 'not_yet_approved' ) ;
#73 = LOCAL_TIME ( 10, 24, 23.00000000000000000, #135 ) ;
#74 = DATE_AND_TIME ( #93, #128 ) ;
#75 = APPLICATION_PROTOCOL_DEFINITION ( 'international standard', 'config_control_design', 1994, #91 ) ;
#76 = CALENDAR_DATE ( 2021, 6, 10 ) ;
#77 = ORIENTED_EDGE ( 'NONE', *, *, #172, .T. ) ;
#78 = PERSON_AND_ORGANIZATION_ROLE ( 'classification_officer' ) ;
#79 = DATE_AND_TIME ( #143, #45 ) ;
#80 = ORIENTED_EDGE ( 'NONE', *, *, #66, .F. ) ;
#81 = DATE_TIME_ROLE ( 'classification_date' ) ;
#82 = CIRCLE ( 'NONE', #88, 0.2999999999999962697 ) ;
#83 = AXIS2_PLACEMENT_3D ( 'NONE', #195, #38, #20 ) ;
#84 = DIRECTION ( 'NONE',  ( -4.275831445896958607E-31, -1.000000000000000000, -1.224646799147353207E-16 ) ) ;
#85 = DIRECTION ( 'NONE',  ( -3.491481338843133355E-15, 1.224646799147353207E-16, -1.000000000000000000 ) ) ;
#86 = DIRECTION ( 'NONE',  ( -3.491481338843133355E-15, 1.224646799147353207E-16, -1.000000000000000000 ) ) ;
#87 = FACE_OUTER_BOUND ( 'NONE', #183, .T. ) ;
#88 = AXIS2_PLACEMENT_3D ( 'NONE', #159, #149, #122 ) ;
#89 = APPROVAL ( #144, 'UNSPECIFIED' ) ;
#90 = FACE_OUTER_BOUND ( 'NONE', #53, .T. ) ;
#91 = APPLICATION_CONTEXT ( 'configuration controlled 3d designs of mechanical parts and assemblies' ) ;
#92 = PERSON_AND_ORGANIZATION_ROLE ( 'design_owner' ) ;
#93 = CALENDAR_DATE ( 2021, 6, 10 ) ;
#94 = CC_DESIGN_APPROVAL ( #68, ( #19 ) ) ;
#95 = VERTEX_POINT ( 'NONE', #200 ) ;
#96 = ORIENTED_EDGE ( 'NONE', *, *, #172, .F. ) ;
#97 = LOCAL_TIME ( 10, 24, 23.00000000000000000, #11 ) ;
#98 = COORDINATED_UNIVERSAL_TIME_OFFSET ( 1, 0, .AHEAD. ) ;
#99 = CC_DESIGN_PERSON_AND_ORGANIZATION_ASSIGNMENT ( #55, #125, ( #2 ) ) ;
#100 = CONICAL_SURFACE ( 'NONE', #160, 0.2999999999999962697, 1.047197551196592746 ) ;
#101 = PRODUCT_RELATED_PRODUCT_CATEGORY ( 'detail', '', ( #184 ) ) ;
#102 = CARTESIAN_POINT ( 'NONE',  ( 2.094888803305880013E-14, -7.347880794884119736E-16, 6.000000000000000000 ) ) ;
#103 = EDGE_LOOP ( 'NONE', ( #189 ) ) ;
#104 = DIRECTION ( 'NONE',  ( -3.491481338843133355E-15, 1.224646799147353207E-16, -1.000000000000000000 ) ) ;
#105 = CARTESIAN_POINT ( 'NONE',  ( 1.047444401652940007E-13, -3.673940397442059178E-15, 30.00000000000000000 ) ) ;
#106 = CLOSED_SHELL ( 'NONE', ( #30, #9, #56, #180 ) ) ;
#107 = ADVANCED_FACE ( 'NONE', ( #131, #194 ), #123, .T. ) ;
#108 = PERSON_AND_ORGANIZATION_ROLE ( 'creator' ) ;
#109 = DIRECTION ( 'NONE',  ( 1.000000000000000000, 0.0000000000000000000, 0.0000000000000000000 ) ) ;
#110 = MANIFOLD_SOLID_BREP ( 'Corps-Déplacer/Copier1[1]', #106 ) ;
#111 = SECURITY_CLASSIFICATION_LEVEL ( 'unclassified' ) ;
#112 = CC_DESIGN_PERSON_AND_ORGANIZATION_ASSIGNMENT ( #13, #78, ( #28 ) ) ;
#113 = CIRCLE ( 'NONE', #64, 0.1999999999999999833 ) ;
#114 = PERSON_AND_ORGANIZATION ( #133, #151 ) ;
#115 = CIRCLE ( 'NONE', #178, 0.2999999999999999889 ) ;
#116 = PLANE ( 'NONE',  #21 ) ;
#117 =( GEOMETRIC_REPRESENTATION_CONTEXT ( 3 ) GLOBAL_UNCERTAINTY_ASSIGNED_CONTEXT ( ( #15 ) ) GLOBAL_UNIT_ASSIGNED_CONTEXT ( ( #140, #155, #57 ) ) REPRESENTATION_CONTEXT ( 'NONE', 'WORKASPACE' ) );
#118 = DIRECTION ( 'NONE',  ( -3.491481338843133355E-15, 1.224646799147353207E-16, -1.000000000000000000 ) ) ;
#119 = ADVANCED_BREP_SHAPE_REPRESENTATION ( '201', ( #110, #42, #170 ), #117 ) ;
#120 = ADVANCED_FACE ( 'NONE', ( #150 ), #100, .T. ) ;
#121 = DIRECTION ( 'NONE',  ( -3.491481338843133355E-15, 1.224646799147353207E-16, -1.000000000000000000 ) ) ;
#122 = DIRECTION ( 'NONE',  ( 3.209883240645433084E-31, 1.000000000000000000, 9.035018104045982860E-17 ) ) ;
#123 = CYLINDRICAL_SURFACE ( 'NONE', #50, 0.2999999999999966582 ) ;
#124 = APPROVAL_ROLE ( '' ) ;
#125 = PERSON_AND_ORGANIZATION_ROLE ( 'creator' ) ;
#126 = PERSON_AND_ORGANIZATION ( #133, #151 ) ;
#127 = CARTESIAN_POINT ( 'NONE',  ( 0.0000000000000000000, 0.0000000000000000000, 0.0000000000000000000 ) ) ;
#128 = LOCAL_TIME ( 10, 24, 23.00000000000000000, #169 ) ;
#129 = DIRECTION ( 'NONE',  ( 3.491481338843133355E-15, -1.224646799147353207E-16, 1.000000000000000000 ) ) ;
#130 = DIRECTION ( 'NONE',  ( 3.491481338843133355E-15, -1.224646799147353207E-16, 1.000000000000000000 ) ) ;
#131 = FACE_OUTER_BOUND ( 'NONE', #61, .T. ) ;
#132 = DIRECTION ( 'NONE',  ( 0.0000000000000000000, 1.000000000000000000, 0.0000000000000000000 ) ) ;
#133 = PERSON ( 'UNSPECIFIED', 'UNSPECIFIED', 'UNSPECIFIED', ('UNSPECIFIED'), ('UNSPECIFIED'), ('UNSPECIFIED') ) ;
#134 = PLANE ( 'NONE',  #83 ) ;
#135 = COORDINATED_UNIVERSAL_TIME_OFFSET ( 1, 0, .AHEAD. ) ;
#136 = APPROVAL_DATE_TIME ( #201, #190 ) ;
#137 = DATE_AND_TIME ( #29, #73 ) ;
#138 = EDGE_CURVE ( 'NONE', #60, #60, #82, .T. ) ;
#139 = CC_DESIGN_DATE_AND_TIME_ASSIGNMENT ( #74, #157, ( #19 ) ) ;
#140 =( LENGTH_UNIT ( ) NAMED_UNIT ( * ) SI_UNIT ( .MILLI., .METRE. ) );
#141 = ORIENTED_EDGE ( 'NONE', *, *, #6, .F. ) ;
#142 = ORIENTED_EDGE ( 'NONE', *, *, #138, .F. ) ;
#143 = CALENDAR_DATE ( 2021, 6, 10 ) ;
#144 = APPROVAL_STATUS ( 'not_yet_approved' ) ;
#145 = EDGE_CURVE ( 'NONE', #43, #43, #113, .T. ) ;
#146 = AXIS2_PLACEMENT_3D ( 'NONE', #52, #86, #132 ) ;
#147 = CARTESIAN_POINT ( 'NONE',  ( 2.094888803305880013E-14, 2.249639673992753227E-33, 6.000000000000000000 ) ) ;
#148 = APPLICATION_CONTEXT ( 'configuration controlled 3d designs of mechanical parts and assemblies' ) ;
#149 = DIRECTION ( 'NONE',  ( -3.491481338843133355E-15, 1.224646799147353207E-16, -1.000000000000000000 ) ) ;
#150 = FACE_OUTER_BOUND ( 'NONE', #103, .T. ) ;
#151 = ORGANIZATION ( 'UNSPECIFIED', 'UNSPECIFIED', '' ) ;
#152 = CARTESIAN_POINT ( 'NONE',  ( 1.043952920314096810E-13, -3.661693929450586610E-15, 29.89999999999999858 ) ) ;
#153 = ORIENTED_EDGE ( 'NONE', *, *, #6, .T. ) ;
#154 = APPROVAL_STATUS ( 'not_yet_approved' ) ;
#155 =( NAMED_UNIT ( * ) PLANE_ANGLE_UNIT ( ) SI_UNIT ( $, .RADIAN. ) );
#156 = CARTESIAN_POINT ( 'NONE',  ( 2.094888803305880013E-14, 0.2999999999999962697, 6.000000000000000000 ) ) ;
#157 = DATE_TIME_ROLE ( 'creation_date' ) ;
#158 = COORDINATED_UNIVERSAL_TIME_OFFSET ( 1, 0, .AHEAD. ) ;
#159 = CARTESIAN_POINT ( 'NONE',  ( 6.047423072554909059E-16, -2.121150477449812042E-17, 0.1732050807568875916 ) ) ;
#160 = AXIS2_PLACEMENT_3D ( 'NONE', #22, #51, #69 ) ;
#161 = DIRECTION ( 'NONE',  ( 0.0000000000000000000, 1.000000000000000000, 0.0000000000000000000 ) ) ;
#162 = FACE_OUTER_BOUND ( 'NONE', #62, .T. ) ;
#163 = DIRECTION ( 'NONE',  ( 4.275831445896959482E-31, 1.000000000000000000, 1.224646799147353207E-16 ) ) ;
#164 = CLOSED_SHELL ( 'NONE', ( #120, #107, #41 ) ) ;
#165 = DIRECTION ( 'NONE',  ( 0.0000000000000000000, 1.000000000000000000, 0.0000000000000000000 ) ) ;
#166 = CARTESIAN_POINT ( 'NONE',  ( 6.047423072554910045E-16, 0.2999999999999962697, 0.1732050807568876194 ) ) ;
#167 = APPLICATION_PROTOCOL_DEFINITION ( 'international standard', 'config_control_design', 1994, #148 ) ;
#168 = AXIS2_PLACEMENT_3D ( 'NONE', #65, #129, #84 ) ;
#169 = COORDINATED_UNIVERSAL_TIME_OFFSET ( 1, 0, .AHEAD. ) ;
#170 = AXIS2_PLACEMENT_3D ( 'NONE', #127, #12, #109 ) ;
#171 = DESIGN_CONTEXT ( 'detailed design', #91, 'design' ) ;
#172 = EDGE_CURVE ( 'NONE', #95, #95, #32, .T. ) ;
#173 = DIRECTION ( 'NONE',  ( 0.0000000000000000000, 1.000000000000000000, 0.0000000000000000000 ) ) ;
#174 = CONICAL_SURFACE ( 'NONE', #146, 0.1999999999999999833, 0.7853981633974512766 ) ;
#175 = APPROVAL_PERSON_ORGANIZATION ( #10, #68, #124 ) ;
#176 = FACE_OUTER_BOUND ( 'NONE', #59, .T. ) ;
#177 = DIRECTION ( 'NONE',  ( -3.491481338843133355E-15, 1.224646799147353207E-16, -1.000000000000000000 ) ) ;
#178 = AXIS2_PLACEMENT_3D ( 'NONE', #152, #104, #5 ) ;
#179 = CARTESIAN_POINT ( 'NONE',  ( 2.094888803305880013E-14, -7.347880794884119736E-16, 6.000000000000000000 ) ) ;
#180 = ADVANCED_FACE ( 'NONE', ( #26 ), #134, .F. ) ;
#181 = PERSON_AND_ORGANIZATION ( #133, #151 ) ;
#182 = APPROVAL_DATE_TIME ( #137, #68 ) ;
#183 = EDGE_LOOP ( 'NONE', ( #141 ) ) ;
#184 = PRODUCT ( '201', '201', '', ( #40 ) ) ;
#185 = APPROVAL_PERSON_ORGANIZATION ( #114, #89, #16 ) ;
#186 = CALENDAR_DATE ( 2021, 6, 10 ) ;
#187 = APPROVAL_DATE_TIME ( #79, #89 ) ;
#188 = EDGE_LOOP ( 'NONE', ( #48 ) ) ;
#189 = ORIENTED_EDGE ( 'NONE', *, *, #138, .T. ) ;
#190 = APPROVAL ( #154, 'UNSPECIFIED' ) ;
#191 = EDGE_LOOP ( 'NONE', ( #202 ) ) ;
#192 = CC_DESIGN_APPROVAL ( #89, ( #28 ) ) ;
#193 = DIRECTION ( 'NONE',  ( -3.491481338843133355E-15, 1.224646799147353207E-16, -1.000000000000000000 ) ) ;
#194 = FACE_OUTER_BOUND ( 'NONE', #188, .T. ) ;
#195 = CARTESIAN_POINT ( 'NONE',  ( 1.047444401652940007E-13, 1.499759782661802356E-33, 30.00000000000000000 ) ) ;
#196 = LOCAL_TIME ( 10, 24, 23.00000000000000000, #158 ) ;
#197 = CARTESIAN_POINT ( 'NONE',  ( 1.047444401652940007E-13, 0.1999999999999962919, 30.00000000000000000 ) ) ;
#198 = APPROVAL_ROLE ( '' ) ;
#199 = CC_DESIGN_PERSON_AND_ORGANIZATION_ASSIGNMENT ( #39, #108, ( #19 ) ) ;
#200 = CARTESIAN_POINT ( 'NONE',  ( 2.094888803305880013E-14, 0.2999999999999962697, 6.000000000000000000 ) ) ;
#201 = DATE_AND_TIME ( #76, #97 ) ;
#202 = ORIENTED_EDGE ( 'NONE', *, *, #145, .F. ) ;
#203 = VERTEX_POINT ( 'NONE', #156 ) ;
ENDSEC;
END-ISO-10303-21;
