ISO-10303-21;
HEADER;
FILE_DESCRIPTION (( 'STEP AP203' ),
    '1' );
FILE_NAME ('200796.step',
    '2021-12-01T14:03:48',
    ( '' ),
    ( '' ),
    'SwSTEP 2.0',
    'SolidWorks 2019',
    '' );
FILE_SCHEMA (( 'CONFIG_CONTROL_DESIGN' ));
ENDSEC;

DATA;
#1 = EDGE_LOOP ( 'NONE', ( #282 ) ) ;
#2 = AXIS2_PLACEMENT_3D ( 'NONE', #292, #186, #145 ) ;
#3 = ORIENTED_EDGE ( 'NONE', *, *, #201, .F. ) ;
#4 = EDGE_CURVE ( 'NONE', #141, #141, #300, .T. ) ;
#5 = APPROVAL_STATUS ( 'not_yet_approved' ) ;
#6 = ORIENTED_EDGE ( 'NONE', *, *, #172, .T. ) ;
#7 =( NAMED_UNIT ( * ) SI_UNIT ( $, .STERADIAN. ) SOLID_ANGLE_UNIT ( ) );
#8 = EDGE_LOOP ( 'NONE', ( #262 ) ) ;
#9 = ORIENTED_EDGE ( 'NONE', *, *, #29, .F. ) ;
#10 = CARTESIAN_POINT ( 'NONE',  ( -2.615358402381667693E-31, 9.173442402419053287E-33, -7.490684178332856473E-17 ) ) ;
#11 =( NAMED_UNIT ( * ) PLANE_ANGLE_UNIT ( ) SI_UNIT ( $, .RADIAN. ) );
#12 = CARTESIAN_POINT ( 'NONE',  ( 7.333190571480401228E-14, -2.572137007003635868E-15, 21.00309255529396424 ) ) ;
#13 = CARTESIAN_POINT ( 'NONE',  ( 7.333190571480401228E-14, 1.499999999999994005, 21.00309255529396424 ) ) ;
#14 = FACE_BOUND ( 'NONE', #94, .T. ) ;
#15 = DIRECTION ( 'NONE',  ( -3.491481338843133355E-15, 1.224646799147353207E-16, -1.000000000000000000 ) ) ;
#16 = DIRECTION ( 'NONE',  ( 0.0000000000000000000, 1.000000000000000000, 0.0000000000000000000 ) ) ;
#17 = DIRECTION ( 'NONE',  ( 4.164172852729162815E-31, 1.000000000000000000, 1.172110456741087061E-16 ) ) ;
#18 = MANIFOLD_SOLID_BREP ( 'Corps-Déplacer/Copier1[2]', #139 ) ;
#19 = CYLINDRICAL_SURFACE ( 'NONE', #54, 0.9249999999999996003 ) ;
#20 = PERSON_AND_ORGANIZATION ( #124, #46 ) ;
#21 = FACE_OUTER_BOUND ( 'NONE', #39, .T. ) ;
#22 = PRODUCT_DEFINITION_SHAPE ( 'NONE', 'NONE',  #77 ) ;
#23 = SECURITY_CLASSIFICATION_LEVEL ( 'unclassified' ) ;
#24 = DIRECTION ( 'NONE',  ( 3.491481338843133355E-15, -1.224646799147353207E-16, 1.000000000000000000 ) ) ;
#25 = AXIS2_PLACEMENT_3D ( 'NONE', #50, #228, #17 ) ;
#26 = APPROVAL ( #222, 'UNSPECIFIED' ) ;
#27 = COORDINATED_UNIVERSAL_TIME_OFFSET ( 1, 0, .AHEAD. ) ;
#28 = EDGE_LOOP ( 'NONE', ( #258 ) ) ;
#29 = EDGE_CURVE ( 'NONE', #45, #45, #267, .T. ) ;
#30 = LOCAL_TIME ( 15, 3, 48.00000000000000000, #57 ) ;
#31 = EDGE_LOOP ( 'NONE', ( #9 ) ) ;
#32 = EDGE_LOOP ( 'NONE', ( #133 ) ) ;
#33 = APPROVAL_DATE_TIME ( #239, #119 ) ;
#34 = EDGE_LOOP ( 'NONE', ( #83 ) ) ;
#35 = VERTEX_POINT ( 'NONE', #81 ) ;
#36 = CIRCLE ( 'NONE', #25, 0.9249999999999991562 ) ;
#37 = FACE_OUTER_BOUND ( 'NONE', #34, .T. ) ;
#38 = CALENDAR_DATE ( 2021, 1, 12 ) ;
#39 = EDGE_LOOP ( 'NONE', ( #102 ) ) ;
#40 = DATE_TIME_ROLE ( 'creation_date' ) ;
#41 = EDGE_CURVE ( 'NONE', #105, #105, #169, .T. ) ;
#42 = AXIS2_PLACEMENT_3D ( 'NONE', #44, #225, #156 ) ;
#43 = AXIS2_PLACEMENT_3D ( 'NONE', #188, #15, #49 ) ;
#44 = CARTESIAN_POINT ( 'NONE',  ( -5.230716804763335387E-31, 1.834688480483810657E-32, -1.498136835666571295E-16 ) ) ;
#45 = VERTEX_POINT ( 'NONE', #219 ) ;
#46 = ORGANIZATION ( 'UNSPECIFIED', 'UNSPECIFIED', '' ) ;
#47 = DIRECTION ( 'NONE',  ( 0.0000000000000000000, 1.000000000000000000, 0.0000000000000000000 ) ) ;
#48 = DATE_AND_TIME ( #236, #166 ) ;
#49 = DIRECTION ( 'NONE',  ( 0.0000000000000000000, 1.000000000000000000, 0.0000000000000000000 ) ) ;
#50 = CARTESIAN_POINT ( 'NONE',  ( 8.728703347107829444E-16, -3.061616997868381785E-17, 0.2499999999999998890 ) ) ;
#51 = ADVANCED_FACE ( 'NONE', ( #140, #14 ), #235, .T. ) ;
#52 = AXIS2_PLACEMENT_3D ( 'NONE', #12, #268, #285 ) ;
#53 = ADVANCED_FACE ( 'NONE', ( #227, #270 ), #62, .T. ) ;
#54 = AXIS2_PLACEMENT_3D ( 'NONE', #116, #210, #294 ) ;
#55 = CLOSED_SHELL ( 'NONE', ( #100, #51, #136, #99, #53, #234, #276, #302 ) ) ;
#56 = EDGE_LOOP ( 'NONE', ( #89 ) ) ;
#57 = COORDINATED_UNIVERSAL_TIME_OFFSET ( 1, 0, .AHEAD. ) ;
#58 = EDGE_LOOP ( 'NONE', ( #241 ) ) ;
#59 = PERSON_AND_ORGANIZATION_ROLE ( 'design_owner' ) ;
#60 = PERSON_AND_ORGANIZATION ( #124, #46 ) ;
#61 = DIRECTION ( 'NONE',  ( 0.0000000000000000000, 1.000000000000000000, 0.0000000000000000000 ) ) ;
#62 = CONICAL_SURFACE ( 'NONE', #52, 1.499999999999996669, 0.1745329251994261477 ) ;
#63 = DIRECTION ( 'NONE',  ( 0.0000000000000000000, 1.000000000000000000, 0.0000000000000000000 ) ) ;
#64 = PERSON_AND_ORGANIZATION_ROLE ( 'creator' ) ;
#65 = CC_DESIGN_DATE_AND_TIME_ASSIGNMENT ( #158, #40, ( #77 ) ) ;
#66 = PLANE ( 'NONE',  #2 ) ;
#67 = DIRECTION ( 'NONE',  ( 0.0000000000000000000, 1.000000000000000000, 0.0000000000000000000 ) ) ;
#68 = AXIS2_PLACEMENT_3D ( 'NONE', #165, #255, #160 ) ;
#69 = CARTESIAN_POINT ( 'NONE',  ( 6.056776150402963091E-14, -2.124431095542013992E-15, 17.34729635533384595 ) ) ;
#70 = APPROVAL_ROLE ( '' ) ;
#71 = FACE_OUTER_BOUND ( 'NONE', #223, .T. ) ;
#72 = PERSON_AND_ORGANIZATION_ROLE ( 'classification_officer' ) ;
#73 = PRODUCT ( '200796', '200796', '', ( #263 ) ) ;
#74 = FACE_BOUND ( 'NONE', #129, .T. ) ;
#75 = DIRECTION ( 'NONE',  ( 4.275831445896958607E-31, 1.000000000000000000, 1.224646799147353207E-16 ) ) ;
#76 = CC_DESIGN_PERSON_AND_ORGANIZATION_ASSIGNMENT ( #120, #72, ( #148 ) ) ;
#77 = PRODUCT_DEFINITION ( 'UNKNOWN', '', #127, #249 ) ;
#78 = AXIS2_PLACEMENT_3D ( 'NONE', #142, #288, #178 ) ;
#79 = ADVANCED_FACE ( 'NONE', ( #113 ), #205, .F. ) ;
#80 = ORIENTED_EDGE ( 'NONE', *, *, #41, .F. ) ;
#81 = CARTESIAN_POINT ( 'NONE',  ( 1.745740669421566678E-13, 1.199999999999995515, 50.00000000000000000 ) ) ;
#82 = AXIS2_PLACEMENT_3D ( 'NONE', #191, #254, #146 ) ;
#83 = ORIENTED_EDGE ( 'NONE', *, *, #246, .F. ) ;
#84 = APPROVAL_PERSON_ORGANIZATION ( #196, #26, #248 ) ;
#85 = DIRECTION ( 'NONE',  ( 0.0000000000000000000, 0.0000000000000000000, 1.000000000000000000 ) ) ;
#86 = DIRECTION ( 'NONE',  ( 0.0000000000000000000, 1.000000000000000000, 0.0000000000000000000 ) ) ;
#87 = VERTEX_POINT ( 'NONE', #200 ) ;
#88 = APPROVAL_PERSON_ORGANIZATION ( #217, #119, #174 ) ;
#89 = ORIENTED_EDGE ( 'NONE', *, *, #90, .T. ) ;
#90 = EDGE_CURVE ( 'NONE', #179, #179, #189, .T. ) ;
#91 = DIRECTION ( 'NONE',  ( 3.491481338843133355E-15, -1.224646799147353207E-16, 1.000000000000000000 ) ) ;
#92 = PERSON_AND_ORGANIZATION_ROLE ( 'creator' ) ;
#93 = DIRECTION ( 'NONE',  ( 3.491481338843133355E-15, -1.224646799147353207E-16, 1.000000000000000000 ) ) ;
#94 = EDGE_LOOP ( 'NONE', ( #216 ) ) ;
#95 = PERSON_AND_ORGANIZATION_ROLE ( 'design_supplier' ) ;
#96 = FACE_OUTER_BOUND ( 'NONE', #171, .T. ) ;
#97 = CARTESIAN_POINT ( 'NONE',  ( 2.793185071074506684E-14, -9.797174393178825657E-16, 8.000000000000000000 ) ) ;
#98 = CYLINDRICAL_SURFACE ( 'NONE', #252, 1.499999999999999112 ) ;
#99 = ADVANCED_FACE ( 'NONE', ( #208, #250 ), #257, .F. ) ;
#100 = ADVANCED_FACE ( 'NONE', ( #264 ), #66, .F. ) ;
#101 = AXIS2_PLACEMENT_3D ( 'NONE', #10, #91, #183 ) ;
#102 = ORIENTED_EDGE ( 'NONE', *, *, #4, .F. ) ;
#103 = DIRECTION ( 'NONE',  ( 1.000000000000000000, 0.0000000000000000000, 0.0000000000000000000 ) ) ;
#104 = EDGE_LOOP ( 'NONE', ( #199 ) ) ;
#105 = VERTEX_POINT ( 'NONE', #108 ) ;
#106 = EDGE_LOOP ( 'NONE', ( #107 ) ) ;
#107 = ORIENTED_EDGE ( 'NONE', *, *, #151, .F. ) ;
#108 = CARTESIAN_POINT ( 'NONE',  ( -1.892735826383162232E-31, 0.7806624327025949439, -5.421010862427523403E-17 ) ) ;
#109 = EDGE_CURVE ( 'NONE', #131, #131, #180, .T. ) ;
#110 = UNCERTAINTY_MEASURE_WITH_UNIT (LENGTH_MEASURE( 1.000000000000000082E-05 ), #198, 'distance_accuracy_value', 'NONE');
#111 = CARTESIAN_POINT ( 'NONE',  ( 2.853659301800060557E-14, -1.000928944092382267E-15, 8.173205080756900998 ) ) ;
#112 = CARTESIAN_POINT ( 'NONE',  ( 0.0000000000000000000, 0.0000000000000000000, 0.0000000000000000000 ) ) ;
#113 = FACE_OUTER_BOUND ( 'NONE', #32, .T. ) ;
#114 = SHAPE_DEFINITION_REPRESENTATION ( #22, #240 ) ;
#115 = DIRECTION ( 'NONE',  ( 4.275831445896958607E-31, 1.000000000000000000, 1.224646799147353454E-16 ) ) ;
#116 = CARTESIAN_POINT ( 'NONE',  ( 0.0000000000000000000, 0.0000000000000000000, 0.0000000000000000000 ) ) ;
#117 = CALENDAR_DATE ( 2021, 1, 12 ) ;
#118 = DIRECTION ( 'NONE',  ( -4.275831445896958607E-31, -1.000000000000000000, -1.224646799147353207E-16 ) ) ;
#119 = APPROVAL ( #5, 'UNSPECIFIED' ) ;
#120 = PERSON_AND_ORGANIZATION ( #124, #46 ) ;
#121 = DIRECTION ( 'NONE',  ( -4.164172852729162815E-31, -1.000000000000000000, -1.172110456741087061E-16 ) ) ;
#122 = CIRCLE ( 'NONE', #277, 0.9250000000000001554 ) ;
#123 = AXIS2_PLACEMENT_3D ( 'NONE', #231, #93, #118 ) ;
#124 = PERSON ( 'UNSPECIFIED', 'UNSPECIFIED', 'UNSPECIFIED', ('UNSPECIFIED'), ('UNSPECIFIED'), ('UNSPECIFIED') ) ;
#125 = CC_DESIGN_APPROVAL ( #26, ( #77 ) ) ;
#126 = CC_DESIGN_PERSON_AND_ORGANIZATION_ASSIGNMENT ( #20, #92, ( #127 ) ) ;
#127 = PRODUCT_DEFINITION_FORMATION_WITH_SPECIFIED_SOURCE ( 'ANY', '', #73, .NOT_KNOWN. ) ;
#128 = ORIENTED_EDGE ( 'NONE', *, *, #109, .T. ) ;
#129 = EDGE_LOOP ( 'NONE', ( #6 ) ) ;
#130 = ADVANCED_FACE ( 'NONE', ( #230, #244 ), #19, .T. ) ;
#131 = VERTEX_POINT ( 'NONE', #153 ) ;
#132 = CARTESIAN_POINT ( 'NONE',  ( 5.935518276033326704E-14, 0.8249999999999928502, 17.00000000000000000 ) ) ;
#133 = ORIENTED_EDGE ( 'NONE', *, *, #41, .T. ) ;
#134 = AXIS2_PLACEMENT_3D ( 'NONE', #190, #164, #211 ) ;
#135 = APPLICATION_PROTOCOL_DEFINITION ( 'international standard', 'config_control_design', 1994, #259 ) ;
#136 = ADVANCED_FACE ( 'NONE', ( #37, #96 ), #147, .T. ) ;
#137 = ORIENTED_EDGE ( 'NONE', *, *, #172, .F. ) ;
#138 = PERSON_AND_ORGANIZATION ( #124, #46 ) ;
#139 = CLOSED_SHELL ( 'NONE', ( #79, #281, #130, #260 ) ) ;
#140 = FACE_OUTER_BOUND ( 'NONE', #31, .T. ) ;
#141 = VERTEX_POINT ( 'NONE', #185 ) ;
#142 = CARTESIAN_POINT ( 'NONE',  ( 5.935518276033326704E-14, -2.168404344971008868E-15, 17.00000000000000000 ) ) ;
#143 = FACE_OUTER_BOUND ( 'NONE', #1, .T. ) ;
#144 = AXIS2_PLACEMENT_3D ( 'NONE', #251, #24, #121 ) ;
#145 = DIRECTION ( 'NONE',  ( -4.275831445896958607E-31, -1.000000000000000000, -1.224646799147353207E-16 ) ) ;
#146 = DIRECTION ( 'NONE',  ( 0.0000000000000000000, 1.000000000000000000, 0.0000000000000000000 ) ) ;
#147 = CYLINDRICAL_SURFACE ( 'NONE', #168, 0.8249999999999944045 ) ;
#148 = SECURITY_CLASSIFICATION ( '', '', #23 ) ;
#149 = AXIS2_PLACEMENT_3D ( 'NONE', #253, #247, #47 ) ;
#150 = EDGE_LOOP ( 'NONE', ( #128 ) ) ;
#151 = EDGE_CURVE ( 'NONE', #242, #242, #122, .T. ) ;
#152 = CALENDAR_DATE ( 2021, 1, 12 ) ;
#153 = CARTESIAN_POINT ( 'NONE',  ( 6.056776150402963091E-14, 0.8553844939755729238, 17.34729635533384595 ) ) ;
#154 = CARTESIAN_POINT ( 'NONE',  ( 8.728703347107833388E-16, 0.9249999999999991562, 0.2500000000000000000 ) ) ;
#155 = CIRCLE ( 'NONE', #134, 1.200000000000001732 ) ;
#156 = DIRECTION ( 'NONE',  ( 4.275831445896958607E-31, 1.000000000000000000, 1.224646799147352961E-16 ) ) ;
#157 = CARTESIAN_POINT ( 'NONE',  ( 1.735266225405037467E-13, -6.086494591762345225E-15, 49.70000000000000284 ) ) ;
#158 = DATE_AND_TIME ( #289, #238 ) ;
#159 = CARTESIAN_POINT ( 'NONE',  ( 7.333190571480401228E-14, -2.572137007003635868E-15, 21.00309255529396424 ) ) ;
#160 = DIRECTION ( 'NONE',  ( 0.0000000000000000000, 1.000000000000000000, 0.0000000000000000000 ) ) ;
#161 = CIRCLE ( 'NONE', #82, 0.8249999999999939604 ) ;
#162 = DIRECTION ( 'NONE',  ( -3.491481338843133355E-15, 1.224646799147353207E-16, -1.000000000000000000 ) ) ;
#163 = PERSON_AND_ORGANIZATION ( #124, #46 ) ;
#164 = DIRECTION ( 'NONE',  ( -3.491481338843133355E-15, 1.224646799147353207E-16, -1.000000000000000000 ) ) ;
#165 = CARTESIAN_POINT ( 'NONE',  ( 1.745740669421566678E-13, -6.123233995736766085E-15, 50.00000000000000000 ) ) ;
#166 = LOCAL_TIME ( 15, 3, 48.00000000000000000, #27 ) ;
#167 = DATE_AND_TIME ( #117, #204 ) ;
#168 = AXIS2_PLACEMENT_3D ( 'NONE', #296, #226, #271 ) ;
#169 = CIRCLE ( 'NONE', #42, 0.7806624327025949439 ) ;
#170 = AXIS2_PLACEMENT_3D ( 'NONE', #157, #206, #63 ) ;
#171 = EDGE_LOOP ( 'NONE', ( #275 ) ) ;
#172 = EDGE_CURVE ( 'NONE', #35, #35, #155, .T. ) ;
#173 = CONICAL_SURFACE ( 'NONE', #144, 0.9249999999999991562, 0.5235987755982922653 ) ;
#174 = APPROVAL_ROLE ( '' ) ;
#175 = CARTESIAN_POINT ( 'NONE',  ( 0.0000000000000000000, 0.0000000000000000000, 0.0000000000000000000 ) ) ;
#176 = CC_DESIGN_SECURITY_CLASSIFICATION ( #148, ( #127 ) ) ;
#177 = EDGE_CURVE ( 'NONE', #286, #286, #36, .T. ) ;
#178 = DIRECTION ( 'NONE',  ( 4.275831445896958607E-31, 1.000000000000000000, 1.224646799147353207E-16 ) ) ;
#179 = VERTEX_POINT ( 'NONE', #13 ) ;
#180 = CIRCLE ( 'NONE', #297, 0.8553844939755751442 ) ;
#181 = EDGE_LOOP ( 'NONE', ( #3 ) ) ;
#182 = COORDINATED_UNIVERSAL_TIME_OFFSET ( 1, 0, .AHEAD. ) ;
#183 = DIRECTION ( 'NONE',  ( -4.275831445896958607E-31, -1.000000000000000000, -1.224646799147353207E-16 ) ) ;
#184 = DATE_TIME_ROLE ( 'classification_date' ) ;
#185 = CARTESIAN_POINT ( 'NONE',  ( 1.735266225405037467E-13, 1.499999999999995559, 49.70000000000000284 ) ) ;
#186 = DIRECTION ( 'NONE',  ( 3.491481338843133355E-15, -1.224646799147353207E-16, 1.000000000000000000 ) ) ;
#187 = COORDINATED_UNIVERSAL_TIME_OFFSET ( 1, 0, .AHEAD. ) ;
#188 = CARTESIAN_POINT ( 'NONE',  ( 5.935518276033326704E-14, -2.081899558550500280E-15, 17.00000000000000000 ) ) ;
#189 = CIRCLE ( 'NONE', #243, 1.499999999999996669 ) ;
#190 = CARTESIAN_POINT ( 'NONE',  ( 1.745740669421566678E-13, -6.123233995736766085E-15, 50.00000000000000000 ) ) ;
#191 = CARTESIAN_POINT ( 'NONE',  ( 2.853659301800060557E-14, -1.000928944092382267E-15, 8.173205080756900998 ) ) ;
#192 = APPLICATION_CONTEXT ( 'configuration controlled 3d designs of mechanical parts and assemblies' ) ;
#193 = CIRCLE ( 'NONE', #43, 0.8249999999999948486 ) ;
#194 = CC_DESIGN_DATE_AND_TIME_ASSIGNMENT ( #48, #184, ( #148 ) ) ;
#195 = EDGE_LOOP ( 'NONE', ( #265 ) ) ;
#196 = PERSON_AND_ORGANIZATION ( #124, #46 ) ;
#197 = CONICAL_SURFACE ( 'NONE', #68, 1.200000000000001732, 0.7853981633974453924 ) ;
#198 =( LENGTH_UNIT ( ) NAMED_UNIT ( * ) SI_UNIT ( .MILLI., .METRE. ) );
#199 = ORIENTED_EDGE ( 'NONE', *, *, #109, .F. ) ;
#200 = CARTESIAN_POINT ( 'NONE',  ( 2.853659301800060557E-14, 0.8249999999999929612, 8.173205080756900998 ) ) ;
#201 = EDGE_CURVE ( 'NONE', #221, #221, #193, .T. ) ;
#202 = DIRECTION ( 'NONE',  ( -3.491481338843133355E-15, 1.224646799147353207E-16, -1.000000000000000000 ) ) ;
#203 = DATE_AND_TIME ( #38, #261 ) ;
#204 = LOCAL_TIME ( 15, 3, 48.00000000000000000, #187 ) ;
#205 = PLANE ( 'NONE',  #101 ) ;
#206 = DIRECTION ( 'NONE',  ( -3.491481338843133355E-15, 1.224646799147353207E-16, -1.000000000000000000 ) ) ;
#207 = PLANE ( 'NONE',  #301 ) ;
#208 = FACE_OUTER_BOUND ( 'NONE', #181, .T. ) ;
#209 = DIRECTION ( 'NONE',  ( -3.491481338843133355E-15, 1.224646799147353207E-16, -1.000000000000000000 ) ) ;
#210 = DIRECTION ( 'NONE',  ( -3.491481338843133355E-15, 1.224646799147353207E-16, -1.000000000000000000 ) ) ;
#211 = DIRECTION ( 'NONE',  ( 0.0000000000000000000, 1.000000000000000000, 0.0000000000000000000 ) ) ;
#212 = AXIS2_PLACEMENT_3D ( 'NONE', #111, #290, #16 ) ;
#213 = CARTESIAN_POINT ( 'NONE',  ( 1.745740669421566678E-13, 8.998558695971067645E-33, 50.00000000000000000 ) ) ;
#214 = APPROVAL_DATE_TIME ( #167, #299 ) ;
#215 = CC_DESIGN_PERSON_AND_ORGANIZATION_ASSIGNMENT ( #232, #95, ( #127 ) ) ;
#216 = ORIENTED_EDGE ( 'NONE', *, *, #246, .T. ) ;
#217 = PERSON_AND_ORGANIZATION ( #124, #46 ) ;
#218 = EDGE_LOOP ( 'NONE', ( #137 ) ) ;
#219 = CARTESIAN_POINT ( 'NONE',  ( 2.793185071074506684E-14, 0.9249999999999991562, 8.000000000000000000 ) ) ;
#220 = MANIFOLD_SOLID_BREP ( 'Corps-Déplacer/Copier1[1]', #55 ) ;
#221 = VERTEX_POINT ( 'NONE', #132 ) ;
#222 = APPROVAL_STATUS ( 'not_yet_approved' ) ;
#223 = EDGE_LOOP ( 'NONE', ( #279 ) ) ;
#224 = COORDINATED_UNIVERSAL_TIME_OFFSET ( 1, 0, .AHEAD. ) ;
#225 = DIRECTION ( 'NONE',  ( -3.491481338843133355E-15, 1.224646799147353207E-16, -1.000000000000000000 ) ) ;
#226 = DIRECTION ( 'NONE',  ( -3.491481338843133355E-15, 1.224646799147353207E-16, -1.000000000000000000 ) ) ;
#227 = FACE_BOUND ( 'NONE', #104, .T. ) ;
#228 = DIRECTION ( 'NONE',  ( -3.491481338843133355E-15, 1.224646799147353207E-16, -1.000000000000000000 ) ) ;
#229 = AXIS2_PLACEMENT_3D ( 'NONE', #175, #85, #103 ) ;
#230 = FACE_OUTER_BOUND ( 'NONE', #28, .T. ) ;
#231 = CARTESIAN_POINT ( 'NONE',  ( 2.793185071074506684E-14, 6.936388994811079120E-33, 8.000000000000000000 ) ) ;
#232 = PERSON_AND_ORGANIZATION ( #124, #46 ) ;
#233 = FACE_BOUND ( 'NONE', #278, .T. ) ;
#234 = ADVANCED_FACE ( 'NONE', ( #143, #71 ), #98, .T. ) ;
#235 = CONICAL_SURFACE ( 'NONE', #212, 0.8249999999999939604, 0.5235987755982942637 ) ;
#236 = CALENDAR_DATE ( 2021, 1, 12 ) ;
#237 = PRODUCT_RELATED_PRODUCT_CATEGORY ( 'detail', '', ( #73 ) ) ;
#238 = LOCAL_TIME ( 15, 3, 48.00000000000000000, #224 ) ;
#239 = DATE_AND_TIME ( #152, #30 ) ;
#240 = ADVANCED_BREP_SHAPE_REPRESENTATION ( '200796', ( #220, #18, #229 ), #283 ) ;
#241 = ORIENTED_EDGE ( 'NONE', *, *, #151, .T. ) ;
#242 = VERTEX_POINT ( 'NONE', #280 ) ;
#243 = AXIS2_PLACEMENT_3D ( 'NONE', #159, #202, #86 ) ;
#244 = FACE_OUTER_BOUND ( 'NONE', #58, .T. ) ;
#245 = APPROVAL_DATE_TIME ( #203, #26 ) ;
#246 = EDGE_CURVE ( 'NONE', #87, #87, #161, .T. ) ;
#247 = DIRECTION ( 'NONE',  ( -3.491481338843133355E-15, 1.224646799147353207E-16, -1.000000000000000000 ) ) ;
#248 = APPROVAL_ROLE ( '' ) ;
#249 = DESIGN_CONTEXT ( 'detailed design', #259, 'design' ) ;
#250 = FACE_OUTER_BOUND ( 'NONE', #150, .T. ) ;
#251 = CARTESIAN_POINT ( 'NONE',  ( 8.728703347107829444E-16, -3.061616997868381785E-17, 0.2499999999999998890 ) ) ;
#252 = AXIS2_PLACEMENT_3D ( 'NONE', #112, #273, #115 ) ;
#253 = CARTESIAN_POINT ( 'NONE',  ( 2.793185071074506684E-14, -9.797174393178825657E-16, 8.000000000000000000 ) ) ;
#254 = DIRECTION ( 'NONE',  ( -3.491481338843133355E-15, 1.224646799147353207E-16, -1.000000000000000000 ) ) ;
#255 = DIRECTION ( 'NONE',  ( -3.491481338843133355E-15, 1.224646799147353207E-16, -1.000000000000000000 ) ) ;
#256 = CC_DESIGN_APPROVAL ( #119, ( #127 ) ) ;
#257 = TOROIDAL_SURFACE ( 'NONE', #78, 2.824999999999994849, 2.000000000000000888 ) ;
#258 = ORIENTED_EDGE ( 'NONE', *, *, #177, .F. ) ;
#259 = APPLICATION_CONTEXT ( 'configuration controlled 3d designs of mechanical parts and assemblies' ) ;
#260 = ADVANCED_FACE ( 'NONE', ( #293 ), #291, .T. ) ;
#261 = LOCAL_TIME ( 15, 3, 48.00000000000000000, #182 ) ;
#262 = ORIENTED_EDGE ( 'NONE', *, *, #29, .T. ) ;
#263 = MECHANICAL_CONTEXT ( 'NONE', #192, 'mechanical' ) ;
#264 = FACE_OUTER_BOUND ( 'NONE', #8, .T. ) ;
#265 = ORIENTED_EDGE ( 'NONE', *, *, #177, .T. ) ;
#266 = APPLICATION_PROTOCOL_DEFINITION ( 'international standard', 'config_control_design', 1994, #192 ) ;
#267 = CIRCLE ( 'NONE', #149, 0.9250000000000001554 ) ;
#268 = DIRECTION ( 'NONE',  ( 3.491481338843133355E-15, -1.224646799147353207E-16, 1.000000000000000000 ) ) ;
#269 = FACE_OUTER_BOUND ( 'NONE', #195, .T. ) ;
#270 = FACE_OUTER_BOUND ( 'NONE', #56, .T. ) ;
#271 = DIRECTION ( 'NONE',  ( 4.275831445896958607E-31, 1.000000000000000000, 1.224646799147353207E-16 ) ) ;
#272 = CC_DESIGN_PERSON_AND_ORGANIZATION_ASSIGNMENT ( #60, #59, ( #73 ) ) ;
#273 = DIRECTION ( 'NONE',  ( -3.491481338843133355E-15, 1.224646799147353207E-16, -1.000000000000000000 ) ) ;
#274 = FACE_OUTER_BOUND ( 'NONE', #218, .T. ) ;
#275 = ORIENTED_EDGE ( 'NONE', *, *, #201, .T. ) ;
#276 = ADVANCED_FACE ( 'NONE', ( #21, #74 ), #197, .T. ) ;
#277 = AXIS2_PLACEMENT_3D ( 'NONE', #97, #209, #67 ) ;
#278 = EDGE_LOOP ( 'NONE', ( #80 ) ) ;
#279 = ORIENTED_EDGE ( 'NONE', *, *, #4, .T. ) ;
#280 = CARTESIAN_POINT ( 'NONE',  ( 2.793185071074506684E-14, 0.9249999999999991562, 8.000000000000000000 ) ) ;
#281 = ADVANCED_FACE ( 'NONE', ( #233, #269 ), #173, .T. ) ;
#282 = ORIENTED_EDGE ( 'NONE', *, *, #90, .F. ) ;
#283 =( GEOMETRIC_REPRESENTATION_CONTEXT ( 3 ) GLOBAL_UNCERTAINTY_ASSIGNED_CONTEXT ( ( #110 ) ) GLOBAL_UNIT_ASSIGNED_CONTEXT ( ( #198, #11, #7 ) ) REPRESENTATION_CONTEXT ( 'NONE', 'WORKASPACE' ) );
#284 = CC_DESIGN_PERSON_AND_ORGANIZATION_ASSIGNMENT ( #138, #64, ( #77 ) ) ;
#285 = DIRECTION ( 'NONE',  ( 0.0000000000000000000, -1.000000000000000000, 0.0000000000000000000 ) ) ;
#286 = VERTEX_POINT ( 'NONE', #154 ) ;
#287 = APPROVAL_PERSON_ORGANIZATION ( #163, #299, #70 ) ;
#288 = DIRECTION ( 'NONE',  ( -3.491481338843133355E-15, 1.224646799147353207E-16, -1.000000000000000000 ) ) ;
#289 = CALENDAR_DATE ( 2021, 1, 12 ) ;
#290 = DIRECTION ( 'NONE',  ( -3.491481338843133355E-15, 1.224646799147353207E-16, -1.000000000000000000 ) ) ;
#291 = PLANE ( 'NONE',  #123 ) ;
#292 = CARTESIAN_POINT ( 'NONE',  ( 2.793185071074506684E-14, 6.936388994811079120E-33, 8.000000000000000000 ) ) ;
#293 = FACE_OUTER_BOUND ( 'NONE', #106, .T. ) ;
#294 = DIRECTION ( 'NONE',  ( 4.275831445896958607E-31, 1.000000000000000000, 1.224646799147353207E-16 ) ) ;
#295 = APPROVAL_STATUS ( 'not_yet_approved' ) ;
#296 = CARTESIAN_POINT ( 'NONE',  ( 0.0000000000000000000, 0.0000000000000000000, 0.0000000000000000000 ) ) ;
#297 = AXIS2_PLACEMENT_3D ( 'NONE', #69, #162, #61 ) ;
#298 = DIRECTION ( 'NONE',  ( -3.491481338843133355E-15, 1.224646799147353207E-16, -1.000000000000000000 ) ) ;
#299 = APPROVAL ( #295, 'UNSPECIFIED' ) ;
#300 = CIRCLE ( 'NONE', #170, 1.500000000000001554 ) ;
#301 = AXIS2_PLACEMENT_3D ( 'NONE', #213, #298, #75 ) ;
#302 = ADVANCED_FACE ( 'NONE', ( #274 ), #207, .F. ) ;
#303 = CC_DESIGN_APPROVAL ( #299, ( #148 ) ) ;
ENDSEC;
END-ISO-10303-21;
