ISO-10303-21;
HEADER;
FILE_DESCRIPTION (( 'STEP AP203' ),
    '1' );
FILE_NAME ('200795.step',
    '2021-12-01T14:03:48',
    ( '' ),
    ( '' ),
    'SwSTEP 2.0',
    'SolidWorks 2019',
    '' );
FILE_SCHEMA (( 'CONFIG_CONTROL_DESIGN' ));
ENDSEC;

DATA;
#1 = EDGE_LOOP ( 'NONE', ( #274 ) ) ;
#2 = AXIS2_PLACEMENT_3D ( 'NONE', #93, #209, #5 ) ;
#3 = LOCAL_TIME ( 15, 3, 48.00000000000000000, #20 ) ;
#4 = DIRECTION ( 'NONE',  ( -3.491481338843133355E-15, 1.224646799147353207E-16, -1.000000000000000000 ) ) ;
#5 = DIRECTION ( 'NONE',  ( -4.275831445896958607E-31, -1.000000000000000000, -1.224646799147353207E-16 ) ) ;
#6 = FACE_BOUND ( 'NONE', #71, .T. ) ;
#7 = AXIS2_PLACEMENT_3D ( 'NONE', #186, #76, #148 ) ;
#8 = DIRECTION ( 'NONE',  ( 3.491481338843133355E-15, -1.224646799147353207E-16, 1.000000000000000000 ) ) ;
#9 = AXIS2_PLACEMENT_3D ( 'NONE', #239, #165, #149 ) ;
#10 = PLANE ( 'NONE',  #107 ) ;
#11 = CARTESIAN_POINT ( 'NONE',  ( 7.382693508081680772E-14, 1.499999999999994005, 21.14487460078437664 ) ) ;
#12 = EDGE_CURVE ( 'NONE', #79, #79, #67, .T. ) ;
#13 = FACE_OUTER_BOUND ( 'NONE', #236, .T. ) ;
#14 = DIRECTION ( 'NONE',  ( -3.491481338843133355E-15, 1.224646799147353207E-16, -1.000000000000000000 ) ) ;
#15 =( NAMED_UNIT ( * ) PLANE_ANGLE_UNIT ( ) SI_UNIT ( $, .RADIAN. ) );
#16 = VERTEX_POINT ( 'NONE', #247 ) ;
#17 = ADVANCED_FACE ( 'NONE', ( #140, #31 ), #188, .F. ) ;
#18 =( GEOMETRIC_REPRESENTATION_CONTEXT ( 3 ) GLOBAL_UNCERTAINTY_ASSIGNED_CONTEXT ( ( #197 ) ) GLOBAL_UNIT_ASSIGNED_CONTEXT ( ( #222, #15, #64 ) ) REPRESENTATION_CONTEXT ( 'NONE', 'WORKASPACE' ) );
#19 = CARTESIAN_POINT ( 'NONE',  ( 2.504511167915743751E-14, 0.7999999999999981570, 7.173205080756892116 ) ) ;
#20 = COORDINATED_UNIVERSAL_TIME_OFFSET ( 1, 0, .AHEAD. ) ;
#21 = ADVANCED_FACE ( 'NONE', ( #182, #6 ), #135, .T. ) ;
#22 = ORIENTED_EDGE ( 'NONE', *, *, #62, .F. ) ;
#23 = AXIS2_PLACEMENT_3D ( 'NONE', #51, #287, #166 ) ;
#24 = DIRECTION ( 'NONE',  ( 4.275831445896958607E-31, 1.000000000000000000, 1.224646799147353207E-16 ) ) ;
#25 = PRODUCT_DEFINITION ( 'UNKNOWN', '', #208, #277 ) ;
#26 = PERSON_AND_ORGANIZATION_ROLE ( 'creator' ) ;
#27 = EDGE_LOOP ( 'NONE', ( #235 ) ) ;
#28 = EDGE_LOOP ( 'NONE', ( #301 ) ) ;
#29 = APPROVAL_DATE_TIME ( #179, #94 ) ;
#30 = DIRECTION ( 'NONE',  ( 0.0000000000000000000, 1.000000000000000000, 0.0000000000000000000 ) ) ;
#31 = FACE_OUTER_BOUND ( 'NONE', #142, .T. ) ;
#32 = FACE_BOUND ( 'NONE', #177, .T. ) ;
#33 = DIRECTION ( 'NONE',  ( 3.491481338843133355E-15, -1.224646799147353207E-16, 1.000000000000000000 ) ) ;
#34 = CARTESIAN_POINT ( 'NONE',  ( 2.504511167915743751E-14, -8.784642641776459355E-16, 7.173205080756892116 ) ) ;
#35 = CARTESIAN_POINT ( 'NONE',  ( 2.444036937190193349E-14, -8.572527594031473190E-16, 7.000000000000000000 ) ) ;
#36 = DIRECTION ( 'NONE',  ( -3.491481338843133355E-15, 1.224646799147353207E-16, -1.000000000000000000 ) ) ;
#37 = CIRCLE ( 'NONE', #245, 1.500000000000001554 ) ;
#38 = ADVANCED_FACE ( 'NONE', ( #238, #116 ), #211, .T. ) ;
#39 = VERTEX_POINT ( 'NONE', #63 ) ;
#40 = PERSON_AND_ORGANIZATION_ROLE ( 'creator' ) ;
#41 = VERTEX_POINT ( 'NONE', #296 ) ;
#42 = CLOSED_SHELL ( 'NONE', ( #158, #260, #191, #118 ) ) ;
#43 = APPLICATION_PROTOCOL_DEFINITION ( 'international standard', 'config_control_design', 1994, #61 ) ;
#44 = DATE_AND_TIME ( #110, #3 ) ;
#45 = ORIENTED_EDGE ( 'NONE', *, *, #117, .T. ) ;
#46 = CC_DESIGN_PERSON_AND_ORGANIZATION_ASSIGNMENT ( #58, #40, ( #25 ) ) ;
#47 = APPROVAL_PERSON_ORGANIZATION ( #81, #237, #153 ) ;
#48 = DIRECTION ( 'NONE',  ( 0.0000000000000000000, 1.000000000000000000, 0.0000000000000000000 ) ) ;
#49 = EDGE_LOOP ( 'NONE', ( #159 ) ) ;
#50 = AXIS2_PLACEMENT_3D ( 'NONE', #180, #262, #48 ) ;
#51 = CARTESIAN_POINT ( 'NONE',  ( 6.056776150402963091E-14, -2.124431095542013992E-15, 17.34729635533384595 ) ) ;
#52 = CARTESIAN_POINT ( 'NONE',  ( 1.745740669421566678E-13, -6.123233995736766085E-15, 50.00000000000000000 ) ) ;
#53 = CC_DESIGN_APPROVAL ( #94, ( #176 ) ) ;
#54 = FACE_OUTER_BOUND ( 'NONE', #154, .T. ) ;
#55 = DIRECTION ( 'NONE',  ( -3.491481338843133355E-15, 1.224646799147353207E-16, -1.000000000000000000 ) ) ;
#56 = FACE_OUTER_BOUND ( 'NONE', #280, .T. ) ;
#57 = PERSON ( 'UNSPECIFIED', 'UNSPECIFIED', 'UNSPECIFIED', ('UNSPECIFIED'), ('UNSPECIFIED'), ('UNSPECIFIED') ) ;
#58 = PERSON_AND_ORGANIZATION ( #57, #73 ) ;
#59 = PERSON_AND_ORGANIZATION ( #57, #73 ) ;
#60 = VERTEX_POINT ( 'NONE', #299 ) ;
#61 = APPLICATION_CONTEXT ( 'configuration controlled 3d designs of mechanical parts and assemblies' ) ;
#62 = EDGE_CURVE ( 'NONE', #218, #218, #230, .T. ) ;
#63 = CARTESIAN_POINT ( 'NONE',  ( 1.892735826383161356E-31, 0.7556624327025948107, 5.421010862427522170E-17 ) ) ;
#64 =( NAMED_UNIT ( * ) SI_UNIT ( $, .STERADIAN. ) SOLID_ANGLE_UNIT ( ) );
#65 = ORIENTED_EDGE ( 'NONE', *, *, #88, .F. ) ;
#66 = DIRECTION ( 'NONE',  ( -3.491481338843133355E-15, 1.224646799147353207E-16, -1.000000000000000000 ) ) ;
#67 = CIRCLE ( 'NONE', #50, 0.8000000000000002665 ) ;
#68 = DIRECTION ( 'NONE',  ( -3.491481338843133355E-15, 1.224646799147353207E-16, -1.000000000000000000 ) ) ;
#69 = EDGE_LOOP ( 'NONE', ( #134 ) ) ;
#70 = COORDINATED_UNIVERSAL_TIME_OFFSET ( 1, 0, .AHEAD. ) ;
#71 = EDGE_LOOP ( 'NONE', ( #251 ) ) ;
#72 = AXIS2_PLACEMENT_3D ( 'NONE', #303, #253, #233 ) ;
#73 = ORGANIZATION ( 'UNSPECIFIED', 'UNSPECIFIED', '' ) ;
#74 = PLANE ( 'NONE',  #254 ) ;
#75 = DIRECTION ( 'NONE',  ( 0.0000000000000000000, -1.000000000000000000, 0.0000000000000000000 ) ) ;
#76 = DIRECTION ( 'NONE',  ( -3.491481338843133355E-15, 1.224646799147353207E-16, -1.000000000000000000 ) ) ;
#77 = AXIS2_PLACEMENT_3D ( 'NONE', #35, #55, #290 ) ;
#78 = AXIS2_PLACEMENT_3D ( 'NONE', #52, #145, #240 ) ;
#79 = VERTEX_POINT ( 'NONE', #242 ) ;
#80 = CYLINDRICAL_SURFACE ( 'NONE', #123, 0.8999999999999995781 ) ;
#81 = PERSON_AND_ORGANIZATION ( #57, #73 ) ;
#82 = AXIS2_PLACEMENT_3D ( 'NONE', #34, #126, #266 ) ;
#83 = VERTEX_POINT ( 'NONE', #298 ) ;
#84 = EDGE_LOOP ( 'NONE', ( #224 ) ) ;
#85 = DIRECTION ( 'NONE',  ( 0.0000000000000000000, 0.0000000000000000000, 1.000000000000000000 ) ) ;
#86 = ADVANCED_BREP_SHAPE_REPRESENTATION ( '200795', ( #223, #232, #173 ), #18 ) ;
#87 = AXIS2_PLACEMENT_3D ( 'NONE', #125, #100, #265 ) ;
#88 = EDGE_CURVE ( 'NONE', #60, #60, #37, .T. ) ;
#89 = APPROVAL_STATUS ( 'not_yet_approved' ) ;
#90 = CARTESIAN_POINT ( 'NONE',  ( 2.504511167915743751E-14, -8.784642641776459355E-16, 7.173205080756892116 ) ) ;
#91 = EDGE_LOOP ( 'NONE', ( #297 ) ) ;
#92 = CONICAL_SURFACE ( 'NONE', #132, 0.8999999999999991340, 0.5235987755982923764 ) ;
#93 = CARTESIAN_POINT ( 'NONE',  ( 2.444036937190193349E-14, 6.748919021978346919E-33, 7.000000000000000000 ) ) ;
#94 = APPROVAL ( #89, 'UNSPECIFIED' ) ;
#95 = EDGE_LOOP ( 'NONE', ( #174 ) ) ;
#96 = EDGE_LOOP ( 'NONE', ( #284 ) ) ;
#97 = CIRCLE ( 'NONE', #7, 0.9000000000000000222 ) ;
#98 = CONICAL_SURFACE ( 'NONE', #78, 1.200000000000001732, 0.7853981633974453924 ) ;
#99 = DIRECTION ( 'NONE',  ( -4.279844320860528400E-31, -1.000000000000000000, -1.204669080539450576E-16 ) ) ;
#100 = DIRECTION ( 'NONE',  ( -3.491481338843133355E-15, 1.224646799147353207E-16, -1.000000000000000000 ) ) ;
#101 = FACE_OUTER_BOUND ( 'NONE', #163, .T. ) ;
#102 = CIRCLE ( 'NONE', #77, 0.9000000000000000222 ) ;
#103 = CIRCLE ( 'NONE', #119, 0.8999999999999991340 ) ;
#104 = DIRECTION ( 'NONE',  ( -3.491481338843133355E-15, 1.224646799147353207E-16, -1.000000000000000000 ) ) ;
#105 = COORDINATED_UNIVERSAL_TIME_OFFSET ( 1, 0, .AHEAD. ) ;
#106 = MECHANICAL_CONTEXT ( 'NONE', #61, 'mechanical' ) ;
#107 = AXIS2_PLACEMENT_3D ( 'NONE', #187, #33, #263 ) ;
#108 = CARTESIAN_POINT ( 'NONE',  ( 1.745740669421566678E-13, 1.199999999999995515, 50.00000000000000000 ) ) ;
#109 = PRODUCT_RELATED_PRODUCT_CATEGORY ( 'detail', '', ( #160 ) ) ;
#110 = CALENDAR_DATE ( 2021, 1, 12 ) ;
#111 = PERSON_AND_ORGANIZATION ( #57, #73 ) ;
#112 = CARTESIAN_POINT ( 'NONE',  ( 1.735266225405037467E-13, -6.086494591762345225E-15, 49.70000000000000284 ) ) ;
#113 = APPLICATION_CONTEXT ( 'configuration controlled 3d designs of mechanical parts and assemblies' ) ;
#114 = SHAPE_DEFINITION_REPRESENTATION ( #199, #86 ) ;
#115 = DIRECTION ( 'NONE',  ( 0.0000000000000000000, 1.000000000000000000, 0.0000000000000000000 ) ) ;
#116 = FACE_OUTER_BOUND ( 'NONE', #49, .T. ) ;
#117 = EDGE_CURVE ( 'NONE', #39, #39, #184, .T. ) ;
#118 = ADVANCED_FACE ( 'NONE', ( #283 ), #120, .T. ) ;
#119 = AXIS2_PLACEMENT_3D ( 'NONE', #244, #36, #167 ) ;
#120 = PLANE ( 'NONE',  #2 ) ;
#121 = ORIENTED_EDGE ( 'NONE', *, *, #143, .T. ) ;
#122 = FACE_OUTER_BOUND ( 'NONE', #95, .T. ) ;
#123 = AXIS2_PLACEMENT_3D ( 'NONE', #219, #14, #190 ) ;
#124 = CC_DESIGN_SECURITY_CLASSIFICATION ( #176, ( #208 ) ) ;
#125 = CARTESIAN_POINT ( 'NONE',  ( 1.745740669421566678E-13, -6.123233995736766085E-15, 50.00000000000000000 ) ) ;
#126 = DIRECTION ( 'NONE',  ( -3.491481338843133355E-15, 1.224646799147353207E-16, -1.000000000000000000 ) ) ;
#127 = DIRECTION ( 'NONE',  ( 3.491481338843133355E-15, -1.224646799147353207E-16, 1.000000000000000000 ) ) ;
#128 = CC_DESIGN_DATE_AND_TIME_ASSIGNMENT ( #302, #206, ( #176 ) ) ;
#129 = FACE_OUTER_BOUND ( 'NONE', #28, .T. ) ;
#130 = COORDINATED_UNIVERSAL_TIME_OFFSET ( 1, 0, .AHEAD. ) ;
#131 = ORIENTED_EDGE ( 'NONE', *, *, #293, .F. ) ;
#132 = AXIS2_PLACEMENT_3D ( 'NONE', #212, #8, #99 ) ;
#133 = VERTEX_POINT ( 'NONE', #19 ) ;
#134 = ORIENTED_EDGE ( 'NONE', *, *, #138, .T. ) ;
#135 = CONICAL_SURFACE ( 'NONE', #164, 0.7999999999999990452, 0.5235987755982929315 ) ;
#136 = CALENDAR_DATE ( 2021, 1, 12 ) ;
#137 = DIRECTION ( 'NONE',  ( -3.491481338843133355E-15, 1.224646799147353207E-16, -1.000000000000000000 ) ) ;
#138 = EDGE_CURVE ( 'NONE', #16, #16, #102, .T. ) ;
#139 = DIRECTION ( 'NONE',  ( 0.0000000000000000000, 1.000000000000000000, 0.0000000000000000000 ) ) ;
#140 = FACE_OUTER_BOUND ( 'NONE', #1, .T. ) ;
#141 = ADVANCED_FACE ( 'NONE', ( #221, #13 ), #249, .T. ) ;
#142 = EDGE_LOOP ( 'NONE', ( #121 ) ) ;
#143 = EDGE_CURVE ( 'NONE', #41, #41, #150, .T. ) ;
#144 = DIRECTION ( 'NONE',  ( 4.275831445896958607E-31, 1.000000000000000000, 1.224646799147353207E-16 ) ) ;
#145 = DIRECTION ( 'NONE',  ( -3.491481338843133355E-15, 1.224646799147353207E-16, -1.000000000000000000 ) ) ;
#146 = FACE_BOUND ( 'NONE', #96, .T. ) ;
#147 = CC_DESIGN_PERSON_AND_ORGANIZATION_ASSIGNMENT ( #59, #269, ( #160 ) ) ;
#148 = DIRECTION ( 'NONE',  ( 0.0000000000000000000, 1.000000000000000000, 0.0000000000000000000 ) ) ;
#149 = DIRECTION ( 'NONE',  ( 4.275831445896958607E-31, 1.000000000000000000, 1.224646799147353454E-16 ) ) ;
#150 = CIRCLE ( 'NONE', #23, 0.8303844939755804511 ) ;
#151 = DATE_TIME_ROLE ( 'creation_date' ) ;
#152 = EDGE_CURVE ( 'NONE', #83, #83, #97, .T. ) ;
#153 = APPROVAL_ROLE ( '' ) ;
#154 = EDGE_LOOP ( 'NONE', ( #131 ) ) ;
#155 = APPROVAL_ROLE ( '' ) ;
#156 = EDGE_LOOP ( 'NONE', ( #256 ) ) ;
#157 = EDGE_LOOP ( 'NONE', ( #45 ) ) ;
#158 = ADVANCED_FACE ( 'NONE', ( #291 ), #171, .F. ) ;
#159 = ORIENTED_EDGE ( 'NONE', *, *, #12, .T. ) ;
#160 = PRODUCT ( '200795', '200795', '', ( #106 ) ) ;
#161 = ORIENTED_EDGE ( 'NONE', *, *, #170, .F. ) ;
#162 = PERSON_AND_ORGANIZATION_ROLE ( 'classification_officer' ) ;
#163 = EDGE_LOOP ( 'NONE', ( #65 ) ) ;
#164 = AXIS2_PLACEMENT_3D ( 'NONE', #90, #137, #30 ) ;
#165 = DIRECTION ( 'NONE',  ( -3.491481338843133355E-15, 1.224646799147353207E-16, -1.000000000000000000 ) ) ;
#166 = DIRECTION ( 'NONE',  ( 0.0000000000000000000, 1.000000000000000000, 0.0000000000000000000 ) ) ;
#167 = DIRECTION ( 'NONE',  ( 4.279844320860528400E-31, 1.000000000000000000, 1.204669080539450576E-16 ) ) ;
#168 = AXIS2_PLACEMENT_3D ( 'NONE', #207, #4, #181 ) ;
#169 = CC_DESIGN_APPROVAL ( #175, ( #25 ) ) ;
#170 = EDGE_CURVE ( 'NONE', #133, #133, #213, .T. ) ;
#171 = PLANE ( 'NONE',  #214 ) ;
#172 = FACE_OUTER_BOUND ( 'NONE', #84, .T. ) ;
#173 = AXIS2_PLACEMENT_3D ( 'NONE', #275, #85, #250 ) ;
#174 = ORIENTED_EDGE ( 'NONE', *, *, #258, .T. ) ;
#175 = APPROVAL ( #228, 'UNSPECIFIED' ) ;
#176 = SECURITY_CLASSIFICATION ( '', '', #204 ) ;
#177 = EDGE_LOOP ( 'NONE', ( #203 ) ) ;
#178 = CC_DESIGN_PERSON_AND_ORGANIZATION_ASSIGNMENT ( #202, #162, ( #176 ) ) ;
#179 = DATE_AND_TIME ( #136, #241 ) ;
#180 = CARTESIAN_POINT ( 'NONE',  ( 5.935518276033326704E-14, -2.081899558550500280E-15, 17.00000000000000000 ) ) ;
#181 = DIRECTION ( 'NONE',  ( 4.275831445896958607E-31, 1.000000000000000000, 1.224646799147353207E-16 ) ) ;
#182 = FACE_OUTER_BOUND ( 'NONE', #91, .T. ) ;
#183 = FACE_OUTER_BOUND ( 'NONE', #69, .T. ) ;
#184 = CIRCLE ( 'NONE', #168, 0.7556624327025948107 ) ;
#185 = CARTESIAN_POINT ( 'NONE',  ( 1.745740669421566678E-13, 8.998558695971067645E-33, 50.00000000000000000 ) ) ;
#186 = CARTESIAN_POINT ( 'NONE',  ( 2.444036937190193349E-14, -8.572527594031473190E-16, 7.000000000000000000 ) ) ;
#187 = CARTESIAN_POINT ( 'NONE',  ( 2.444036937190193349E-14, 6.748919021978346919E-33, 7.000000000000000000 ) ) ;
#188 = TOROIDAL_SURFACE ( 'NONE', #270, 2.799999999999999822, 2.000000000000000000 ) ;
#189 = ADVANCED_FACE ( 'NONE', ( #54 ), #74, .F. ) ;
#190 = DIRECTION ( 'NONE',  ( 4.275831445896958607E-31, 1.000000000000000000, 1.224646799147353207E-16 ) ) ;
#191 = ADVANCED_FACE ( 'NONE', ( #129, #217 ), #80, .T. ) ;
#192 = CALENDAR_DATE ( 2021, 1, 12 ) ;
#193 = PERSON_AND_ORGANIZATION ( #57, #73 ) ;
#194 = VERTEX_POINT ( 'NONE', #108 ) ;
#195 = DATE_AND_TIME ( #227, #220 ) ;
#196 = ADVANCED_FACE ( 'NONE', ( #56, #172 ), #268, .T. ) ;
#197 = UNCERTAINTY_MEASURE_WITH_UNIT (LENGTH_MEASURE( 1.000000000000000082E-05 ), #222, 'distance_accuracy_value', 'NONE');
#198 = CARTESIAN_POINT ( 'NONE',  ( 8.728703347107835360E-16, 0.8999999999999991340, 0.2500000000000000555 ) ) ;
#199 = PRODUCT_DEFINITION_SHAPE ( 'NONE', 'NONE',  #25 ) ;
#200 = CALENDAR_DATE ( 2021, 1, 12 ) ;
#201 = ORIENTED_EDGE ( 'NONE', *, *, #152, .F. ) ;
#202 = PERSON_AND_ORGANIZATION ( #57, #73 ) ;
#203 = ORIENTED_EDGE ( 'NONE', *, *, #117, .F. ) ;
#204 = SECURITY_CLASSIFICATION_LEVEL ( 'unclassified' ) ;
#205 = ORIENTED_EDGE ( 'NONE', *, *, #62, .T. ) ;
#206 = DATE_TIME_ROLE ( 'classification_date' ) ;
#207 = CARTESIAN_POINT ( 'NONE',  ( -1.338349365849587789E-31, 4.694297657542844891E-33, -3.833184932023827285E-17 ) ) ;
#208 = PRODUCT_DEFINITION_FORMATION_WITH_SPECIFIED_SOURCE ( 'ANY', '', #160, .NOT_KNOWN. ) ;
#209 = DIRECTION ( 'NONE',  ( 3.491481338843133355E-15, -1.224646799147353207E-16, 1.000000000000000000 ) ) ;
#210 = ADVANCED_FACE ( 'NONE', ( #183 ), #10, .F. ) ;
#211 = CYLINDRICAL_SURFACE ( 'NONE', #72, 0.7999999999999997113 ) ;
#212 = CARTESIAN_POINT ( 'NONE',  ( 8.728703347107831416E-16, -3.061616997868382402E-17, 0.2499999999999999445 ) ) ;
#213 = CIRCLE ( 'NONE', #82, 0.7999999999999990452 ) ;
#214 = AXIS2_PLACEMENT_3D ( 'NONE', #294, #264, #243 ) ;
#215 = CC_DESIGN_APPROVAL ( #237, ( #208 ) ) ;
#216 = CC_DESIGN_PERSON_AND_ORGANIZATION_ASSIGNMENT ( #193, #26, ( #208 ) ) ;
#217 = FACE_OUTER_BOUND ( 'NONE', #27, .T. ) ;
#218 = VERTEX_POINT ( 'NONE', #11 ) ;
#219 = CARTESIAN_POINT ( 'NONE',  ( 0.0000000000000000000, 0.0000000000000000000, 0.0000000000000000000 ) ) ;
#220 = LOCAL_TIME ( 15, 3, 48.00000000000000000, #130 ) ;
#221 = FACE_BOUND ( 'NONE', #156, .T. ) ;
#222 =( LENGTH_UNIT ( ) NAMED_UNIT ( * ) SI_UNIT ( .MILLI., .METRE. ) );
#223 = MANIFOLD_SOLID_BREP ( 'Corps-Déplacer/Copier1[1]', #226 ) ;
#224 = ORIENTED_EDGE ( 'NONE', *, *, #88, .T. ) ;
#225 = APPROVAL_DATE_TIME ( #195, #237 ) ;
#226 = CLOSED_SHELL ( 'NONE', ( #210, #21, #38, #17, #141, #196, #267, #189 ) ) ;
#227 = CALENDAR_DATE ( 2021, 1, 12 ) ;
#228 = APPROVAL_STATUS ( 'not_yet_approved' ) ;
#229 = VERTEX_POINT ( 'NONE', #198 ) ;
#230 = CIRCLE ( 'NONE', #276, 1.499999999999996669 ) ;
#231 = CARTESIAN_POINT ( 'NONE',  ( 7.382693508081680772E-14, -2.589500299822275473E-15, 21.14487460078437664 ) ) ;
#232 = MANIFOLD_SOLID_BREP ( 'Corps-Déplacer/Copier1[2]', #42 ) ;
#233 = DIRECTION ( 'NONE',  ( 4.275831445896958607E-31, 1.000000000000000000, 1.224646799147353207E-16 ) ) ;
#234 = COORDINATED_UNIVERSAL_TIME_OFFSET ( 1, 0, .AHEAD. ) ;
#235 = ORIENTED_EDGE ( 'NONE', *, *, #152, .T. ) ;
#236 = EDGE_LOOP ( 'NONE', ( #205 ) ) ;
#237 = APPROVAL ( #246, 'UNSPECIFIED' ) ;
#238 = FACE_OUTER_BOUND ( 'NONE', #261, .T. ) ;
#239 = CARTESIAN_POINT ( 'NONE',  ( 0.0000000000000000000, 0.0000000000000000000, 0.0000000000000000000 ) ) ;
#240 = DIRECTION ( 'NONE',  ( 0.0000000000000000000, 1.000000000000000000, 0.0000000000000000000 ) ) ;
#241 = LOCAL_TIME ( 15, 3, 48.00000000000000000, #234 ) ;
#242 = CARTESIAN_POINT ( 'NONE',  ( 5.935518276033326704E-14, 0.7999999999999981570, 17.00000000000000000 ) ) ;
#243 = DIRECTION ( 'NONE',  ( -4.275831445896958607E-31, -1.000000000000000000, -1.224646799147353207E-16 ) ) ;
#244 = CARTESIAN_POINT ( 'NONE',  ( 8.728703347107831416E-16, -3.061616997868382402E-17, 0.2499999999999999445 ) ) ;
#245 = AXIS2_PLACEMENT_3D ( 'NONE', #112, #68, #139 ) ;
#246 = APPROVAL_STATUS ( 'not_yet_approved' ) ;
#247 = CARTESIAN_POINT ( 'NONE',  ( 2.444036937190193349E-14, 0.8999999999999991340, 7.000000000000000000 ) ) ;
#248 = APPROVAL_DATE_TIME ( #44, #175 ) ;
#249 = CONICAL_SURFACE ( 'NONE', #285, 1.499999999999996669, 0.1745329251994263420 ) ;
#250 = DIRECTION ( 'NONE',  ( 1.000000000000000000, 0.0000000000000000000, 0.0000000000000000000 ) ) ;
#251 = ORIENTED_EDGE ( 'NONE', *, *, #170, .T. ) ;
#252 = PERSON_AND_ORGANIZATION ( #57, #73 ) ;
#253 = DIRECTION ( 'NONE',  ( -3.491481338843133355E-15, 1.224646799147353207E-16, -1.000000000000000000 ) ) ;
#254 = AXIS2_PLACEMENT_3D ( 'NONE', #185, #104, #144 ) ;
#255 = APPROVAL_PERSON_ORGANIZATION ( #279, #94, #300 ) ;
#256 = ORIENTED_EDGE ( 'NONE', *, *, #143, .F. ) ;
#257 = DIRECTION ( 'NONE',  ( -3.491481338843133355E-15, 1.224646799147353207E-16, -1.000000000000000000 ) ) ;
#258 = EDGE_CURVE ( 'NONE', #229, #229, #103, .T. ) ;
#259 = PERSON_AND_ORGANIZATION_ROLE ( 'design_supplier' ) ;
#260 = ADVANCED_FACE ( 'NONE', ( #32, #122 ), #92, .T. ) ;
#261 = EDGE_LOOP ( 'NONE', ( #161 ) ) ;
#262 = DIRECTION ( 'NONE',  ( -3.491481338843133355E-15, 1.224646799147353207E-16, -1.000000000000000000 ) ) ;
#263 = DIRECTION ( 'NONE',  ( -4.275831445896958607E-31, -1.000000000000000000, -1.224646799147353207E-16 ) ) ;
#264 = DIRECTION ( 'NONE',  ( 3.491481338843133355E-15, -1.224646799147353207E-16, 1.000000000000000000 ) ) ;
#265 = DIRECTION ( 'NONE',  ( 0.0000000000000000000, 1.000000000000000000, 0.0000000000000000000 ) ) ;
#266 = DIRECTION ( 'NONE',  ( 0.0000000000000000000, 1.000000000000000000, 0.0000000000000000000 ) ) ;
#267 = ADVANCED_FACE ( 'NONE', ( #101, #146 ), #98, .T. ) ;
#268 = CYLINDRICAL_SURFACE ( 'NONE', #9, 1.499999999999999112 ) ;
#269 = PERSON_AND_ORGANIZATION_ROLE ( 'design_owner' ) ;
#270 = AXIS2_PLACEMENT_3D ( 'NONE', #278, #66, #24 ) ;
#271 = CIRCLE ( 'NONE', #87, 1.200000000000001732 ) ;
#272 = CC_DESIGN_PERSON_AND_ORGANIZATION_ASSIGNMENT ( #111, #259, ( #208 ) ) ;
#273 = APPLICATION_PROTOCOL_DEFINITION ( 'international standard', 'config_control_design', 1994, #113 ) ;
#274 = ORIENTED_EDGE ( 'NONE', *, *, #12, .F. ) ;
#275 = CARTESIAN_POINT ( 'NONE',  ( 0.0000000000000000000, 0.0000000000000000000, 0.0000000000000000000 ) ) ;
#276 = AXIS2_PLACEMENT_3D ( 'NONE', #231, #257, #115 ) ;
#277 = DESIGN_CONTEXT ( 'detailed design', #113, 'design' ) ;
#278 = CARTESIAN_POINT ( 'NONE',  ( 5.935518276033326704E-14, -2.168404344971008868E-15, 17.00000000000000000 ) ) ;
#279 = PERSON_AND_ORGANIZATION ( #57, #73 ) ;
#280 = EDGE_LOOP ( 'NONE', ( #22 ) ) ;
#281 = LOCAL_TIME ( 15, 3, 48.00000000000000000, #105 ) ;
#282 = EDGE_LOOP ( 'NONE', ( #201 ) ) ;
#283 = FACE_OUTER_BOUND ( 'NONE', #282, .T. ) ;
#284 = ORIENTED_EDGE ( 'NONE', *, *, #293, .T. ) ;
#285 = AXIS2_PLACEMENT_3D ( 'NONE', #289, #127, #75 ) ;
#286 = CC_DESIGN_DATE_AND_TIME_ASSIGNMENT ( #295, #151, ( #25 ) ) ;
#287 = DIRECTION ( 'NONE',  ( -3.491481338843133355E-15, 1.224646799147353207E-16, -1.000000000000000000 ) ) ;
#288 = LOCAL_TIME ( 15, 3, 48.00000000000000000, #70 ) ;
#289 = CARTESIAN_POINT ( 'NONE',  ( 7.382693508081680772E-14, -2.589500299822275473E-15, 21.14487460078437664 ) ) ;
#290 = DIRECTION ( 'NONE',  ( 0.0000000000000000000, 1.000000000000000000, 0.0000000000000000000 ) ) ;
#291 = FACE_OUTER_BOUND ( 'NONE', #157, .T. ) ;
#292 = APPROVAL_PERSON_ORGANIZATION ( #252, #175, #155 ) ;
#293 = EDGE_CURVE ( 'NONE', #194, #194, #271, .T. ) ;
#294 = CARTESIAN_POINT ( 'NONE',  ( -6.691746829247938945E-32, 2.347148828771422446E-33, -1.916592466011913643E-17 ) ) ;
#295 = DATE_AND_TIME ( #192, #281 ) ;
#296 = CARTESIAN_POINT ( 'NONE',  ( 6.056776150402963091E-14, 0.8303844939755783416, 17.34729635533384595 ) ) ;
#297 = ORIENTED_EDGE ( 'NONE', *, *, #138, .F. ) ;
#298 = CARTESIAN_POINT ( 'NONE',  ( 2.444036937190193349E-14, 0.8999999999999991340, 7.000000000000000000 ) ) ;
#299 = CARTESIAN_POINT ( 'NONE',  ( 1.735266225405037467E-13, 1.499999999999995559, 49.70000000000000284 ) ) ;
#300 = APPROVAL_ROLE ( '' ) ;
#301 = ORIENTED_EDGE ( 'NONE', *, *, #258, .F. ) ;
#302 = DATE_AND_TIME ( #200, #288 ) ;
#303 = CARTESIAN_POINT ( 'NONE',  ( 0.0000000000000000000, 0.0000000000000000000, 0.0000000000000000000 ) ) ;
ENDSEC;
END-ISO-10303-21;
