ISO-10303-21;
HEADER;
FILE_DESCRIPTION (( 'STEP AP203' ),
    '1' );
FILE_NAME ('200794.step',
    '2021-12-01T14:03:47',
    ( '' ),
    ( '' ),
    'SwSTEP 2.0',
    'SolidWorks 2019',
    '' );
FILE_SCHEMA (( 'CONFIG_CONTROL_DESIGN' ));
ENDSEC;

DATA;
#1 = PERSON_AND_ORGANIZATION ( #119, #302 ) ;
#2 = CARTESIAN_POINT ( 'NONE',  ( 1.745740669421566678E-13, -6.123233995736766085E-15, 50.00000000000000000 ) ) ;
#3 = PERSON_AND_ORGANIZATION ( #119, #302 ) ;
#4 = CARTESIAN_POINT ( 'NONE',  ( 2.444036937190193349E-14, 5.999039130647416747E-33, 7.000000000000000000 ) ) ;
#5 = DATE_AND_TIME ( #279, #157 ) ;
#6 = FACE_OUTER_BOUND ( 'NONE', #47, .T. ) ;
#7 = DIRECTION ( 'NONE',  ( -3.491481338843133355E-15, 1.224646799147353207E-16, -1.000000000000000000 ) ) ;
#8 = AXIS2_PLACEMENT_3D ( 'NONE', #133, #12, #222 ) ;
#9 = CARTESIAN_POINT ( 'NONE',  ( 6.882408986718216452E-14, -2.414024111267381345E-15, 19.71200278274616835 ) ) ;
#10 = PERSON_AND_ORGANIZATION_ROLE ( 'design_owner' ) ;
#11 = CARTESIAN_POINT ( 'NONE',  ( 5.237222008264699402E-14, -1.836970198721029589E-15, 14.99999999999999822 ) ) ;
#12 = DIRECTION ( 'NONE',  ( 3.491481338843133355E-15, -1.224646799147353207E-16, 1.000000000000000000 ) ) ;
#13 = CC_DESIGN_APPROVAL ( #126, ( #42 ) ) ;
#14 = APPROVAL ( #260, 'UNSPECIFIED' ) ;
#15 = DIRECTION ( 'NONE',  ( -3.491481338843133355E-15, 1.224646799147353207E-16, -1.000000000000000000 ) ) ;
#16 = CARTESIAN_POINT ( 'NONE',  ( -1.401751023821526664E-31, 4.916680737847941936E-33, -4.014774497651997631E-17 ) ) ;
#17 = APPROVAL_PERSON_ORGANIZATION ( #3, #14, #235 ) ;
#18 = FACE_OUTER_BOUND ( 'NONE', #141, .T. ) ;
#19 = EDGE_LOOP ( 'NONE', ( #183 ) ) ;
#20 = DIRECTION ( 'NONE',  ( -3.491481338843133355E-15, 1.224646799147353207E-16, -1.000000000000000000 ) ) ;
#21 = DIRECTION ( 'NONE',  ( -3.491481338843133355E-15, 1.224646799147353207E-16, -1.000000000000000000 ) ) ;
#22 = CONICAL_SURFACE ( 'NONE', #33, 1.200000000000001732, 0.7853981633974453924 ) ;
#23 = DIRECTION ( 'NONE',  ( -3.491481338843133355E-15, 1.224646799147353207E-16, -1.000000000000000000 ) ) ;
#24 = DIRECTION ( 'NONE',  ( -3.491481338843133355E-15, 1.224646799147353207E-16, -1.000000000000000000 ) ) ;
#25 = ADVANCED_BREP_SHAPE_REPRESENTATION ( '200794', ( #139, #26, #278 ), #52 ) ;
#26 = MANIFOLD_SOLID_BREP ( 'Corps-Déplacer/Copier1[2]', #172 ) ;
#27 = DIRECTION ( 'NONE',  ( 4.275831445896958607E-31, 1.000000000000000000, 1.224646799147353207E-16 ) ) ;
#28 = PERSON_AND_ORGANIZATION ( #119, #302 ) ;
#29 = PERSON_AND_ORGANIZATION ( #119, #302 ) ;
#30 = CARTESIAN_POINT ( 'NONE',  ( 2.504511167915744066E-14, -8.784642641776459355E-16, 7.173205080756893004 ) ) ;
#31 = APPROVAL_DATE_TIME ( #238, #65 ) ;
#32 = PERSON_AND_ORGANIZATION ( #119, #302 ) ;
#33 = AXIS2_PLACEMENT_3D ( 'NONE', #2, #211, #54 ) ;
#34 = FACE_BOUND ( 'NONE', #160, .T. ) ;
#35 = DIRECTION ( 'NONE',  ( -3.491481338843133355E-15, 1.224646799147353207E-16, -1.000000000000000000 ) ) ;
#36 = FACE_OUTER_BOUND ( 'NONE', #253, .T. ) ;
#37 = SHAPE_DEFINITION_REPRESENTATION ( #230, #25 ) ;
#38 = ADVANCED_FACE ( 'NONE', ( #144, #205 ), #82, .T. ) ;
#39 = PLANE ( 'NONE',  #251 ) ;
#40 = DIRECTION ( 'NONE',  ( 4.275831445896957731E-31, 1.000000000000000000, 1.224646799147352961E-16 ) ) ;
#41 = DIRECTION ( 'NONE',  ( 0.0000000000000000000, 1.000000000000000000, 0.0000000000000000000 ) ) ;
#42 = PRODUCT_DEFINITION ( 'UNKNOWN', '', #171, #232 ) ;
#43 = CARTESIAN_POINT ( 'NONE',  ( 2.444036937190193349E-14, 5.999039130647416747E-33, 7.000000000000000000 ) ) ;
#44 = DIRECTION ( 'NONE',  ( -4.275831445896958607E-31, -1.000000000000000000, -1.224646799147353207E-16 ) ) ;
#45 = TOROIDAL_SURFACE ( 'NONE', #83, 2.699999999999999734, 2.000000000000000000 ) ;
#46 = EDGE_LOOP ( 'NONE', ( #267 ) ) ;
#47 = EDGE_LOOP ( 'NONE', ( #269 ) ) ;
#48 = ORIENTED_EDGE ( 'NONE', *, *, #244, .T. ) ;
#49 = ORIENTED_EDGE ( 'NONE', *, *, #229, .T. ) ;
#50 = EDGE_LOOP ( 'NONE', ( #164 ) ) ;
#51 = PRODUCT ( '200794', '200794', '', ( #104 ) ) ;
#52 =( GEOMETRIC_REPRESENTATION_CONTEXT ( 3 ) GLOBAL_UNCERTAINTY_ASSIGNED_CONTEXT ( ( #203 ) ) GLOBAL_UNIT_ASSIGNED_CONTEXT ( ( #79, #255, #241 ) ) REPRESENTATION_CONTEXT ( 'NONE', 'WORKASPACE' ) );
#53 = VERTEX_POINT ( 'NONE', #199 ) ;
#54 = DIRECTION ( 'NONE',  ( 0.0000000000000000000, 1.000000000000000000, 0.0000000000000000000 ) ) ;
#55 = PRODUCT_RELATED_PRODUCT_CATEGORY ( 'detail', '', ( #51 ) ) ;
#56 = VERTEX_POINT ( 'NONE', #293 ) ;
#57 = COORDINATED_UNIVERSAL_TIME_OFFSET ( 1, 0, .AHEAD. ) ;
#58 = CONICAL_SURFACE ( 'NONE', #246, 1.499999999999996447, 0.1745329251994262587 ) ;
#59 = CIRCLE ( 'NONE', #81, 0.6999999999999997335 ) ;
#60 = PERSON_AND_ORGANIZATION_ROLE ( 'design_supplier' ) ;
#61 = VERTEX_POINT ( 'NONE', #214 ) ;
#62 = VERTEX_POINT ( 'NONE', #95 ) ;
#63 = DIRECTION ( 'NONE',  ( 4.275831445896958607E-31, 1.000000000000000000, 1.224646799147353207E-16 ) ) ;
#64 = CARTESIAN_POINT ( 'NONE',  ( 2.504511167915744066E-14, 0.6999999999999978462, 7.173205080756893004 ) ) ;
#65 = APPROVAL ( #124, 'UNSPECIFIED' ) ;
#66 = APPLICATION_CONTEXT ( 'configuration controlled 3d designs of mechanical parts and assemblies' ) ;
#67 = AXIS2_PLACEMENT_3D ( 'NONE', #151, #24, #90 ) ;
#68 = EDGE_LOOP ( 'NONE', ( #202 ) ) ;
#69 = CARTESIAN_POINT ( 'NONE',  ( 0.0000000000000000000, 0.0000000000000000000, 0.0000000000000000000 ) ) ;
#70 = ORIENTED_EDGE ( 'NONE', *, *, #176, .F. ) ;
#71 = ORIENTED_EDGE ( 'NONE', *, *, #75, .T. ) ;
#72 = EDGE_LOOP ( 'NONE', ( #74 ) ) ;
#73 = DIRECTION ( 'NONE',  ( 3.491481338843133355E-15, -1.224646799147353207E-16, 1.000000000000000000 ) ) ;
#74 = ORIENTED_EDGE ( 'NONE', *, *, #243, .F. ) ;
#75 = EDGE_CURVE ( 'NONE', #94, #94, #276, .T. ) ;
#76 = CALENDAR_DATE ( 2021, 1, 12 ) ;
#77 = DATE_TIME_ROLE ( 'creation_date' ) ;
#78 = LOCAL_TIME ( 15, 3, 47.00000000000000000, #129 ) ;
#79 =( LENGTH_UNIT ( ) NAMED_UNIT ( * ) SI_UNIT ( .MILLI., .METRE. ) );
#80 = DIRECTION ( 'NONE',  ( -3.491481338843133355E-15, 1.224646799147353207E-16, -1.000000000000000000 ) ) ;
#81 = AXIS2_PLACEMENT_3D ( 'NONE', #11, #80, #41 ) ;
#82 = CONICAL_SURFACE ( 'NONE', #299, 0.6999999999999987343, 0.5235987755982921543 ) ;
#83 = AXIS2_PLACEMENT_3D ( 'NONE', #277, #254, #63 ) ;
#84 = CARTESIAN_POINT ( 'NONE',  ( 1.735266225405037467E-13, -6.086494591762345225E-15, 49.70000000000000284 ) ) ;
#85 = EDGE_CURVE ( 'NONE', #61, #61, #148, .T. ) ;
#86 = EDGE_LOOP ( 'NONE', ( #49 ) ) ;
#87 = CARTESIAN_POINT ( 'NONE',  ( 5.358479882634336420E-14, 0.7303844939755791410, 15.34729635533384773 ) ) ;
#88 = AXIS2_PLACEMENT_3D ( 'NONE', #142, #21, #275 ) ;
#89 = ORIENTED_EDGE ( 'NONE', *, *, #176, .T. ) ;
#90 = DIRECTION ( 'NONE',  ( 0.0000000000000000000, 1.000000000000000000, 0.0000000000000000000 ) ) ;
#91 = EDGE_LOOP ( 'NONE', ( #231 ) ) ;
#92 = VERTEX_POINT ( 'NONE', #228 ) ;
#93 = EDGE_CURVE ( 'NONE', #217, #217, #59, .T. ) ;
#94 = VERTEX_POINT ( 'NONE', #87 ) ;
#95 = CARTESIAN_POINT ( 'NONE',  ( 1.735266225405037467E-13, 1.499999999999995559, 49.70000000000000284 ) ) ;
#96 = VERTEX_POINT ( 'NONE', #169 ) ;
#97 = DIRECTION ( 'NONE',  ( -4.275831445896958607E-31, -1.000000000000000000, -1.224646799147353207E-16 ) ) ;
#98 = DIRECTION ( 'NONE',  ( -4.275831445896958607E-31, -1.000000000000000000, -1.224646799147353207E-16 ) ) ;
#99 = APPROVAL_ROLE ( '' ) ;
#100 = AXIS2_PLACEMENT_3D ( 'NONE', #146, #121, #27 ) ;
#101 = CC_DESIGN_PERSON_AND_ORGANIZATION_ASSIGNMENT ( #28, #209, ( #159 ) ) ;
#102 = CARTESIAN_POINT ( 'NONE',  ( 2.444036937190193349E-14, -8.572527594031473190E-16, 7.000000000000000000 ) ) ;
#103 = FACE_BOUND ( 'NONE', #274, .T. ) ;
#104 = MECHANICAL_CONTEXT ( 'NONE', #66, 'mechanical' ) ;
#105 = LOCAL_TIME ( 15, 3, 47.00000000000000000, #174 ) ;
#106 = APPROVAL_DATE_TIME ( #263, #14 ) ;
#107 = ADVANCED_FACE ( 'NONE', ( #135 ), #207, .F. ) ;
#108 = DIRECTION ( 'NONE',  ( 3.491481338843133355E-15, -1.224646799147353207E-16, 1.000000000000000000 ) ) ;
#109 = FACE_OUTER_BOUND ( 'NONE', #72, .T. ) ;
#110 = AXIS2_PLACEMENT_3D ( 'NONE', #213, #153, #215 ) ;
#111 = FACE_OUTER_BOUND ( 'NONE', #179, .T. ) ;
#112 = APPLICATION_CONTEXT ( 'configuration controlled 3d designs of mechanical parts and assemblies' ) ;
#113 = DIRECTION ( 'NONE',  ( 3.491481338843133355E-15, -1.224646799147353207E-16, 1.000000000000000000 ) ) ;
#114 = CIRCLE ( 'NONE', #145, 1.200000000000001732 ) ;
#115 = EDGE_CURVE ( 'NONE', #62, #62, #265, .T. ) ;
#116 = FACE_OUTER_BOUND ( 'NONE', #249, .T. ) ;
#117 = EDGE_LOOP ( 'NONE', ( #223 ) ) ;
#118 = ADVANCED_FACE ( 'NONE', ( #158 ), #39, .T. ) ;
#119 = PERSON ( 'UNSPECIFIED', 'UNSPECIFIED', 'UNSPECIFIED', ('UNSPECIFIED'), ('UNSPECIFIED'), ('UNSPECIFIED') ) ;
#120 = DIRECTION ( 'NONE',  ( 0.0000000000000000000, 1.000000000000000000, 0.0000000000000000000 ) ) ;
#121 = DIRECTION ( 'NONE',  ( -3.491481338843133355E-15, 1.224646799147353207E-16, -1.000000000000000000 ) ) ;
#122 = APPROVAL_ROLE ( '' ) ;
#123 = FACE_OUTER_BOUND ( 'NONE', #117, .T. ) ;
#124 = APPROVAL_STATUS ( 'not_yet_approved' ) ;
#125 = CIRCLE ( 'NONE', #155, 0.7999999999999999334 ) ;
#126 = APPROVAL ( #173, 'UNSPECIFIED' ) ;
#127 = COORDINATED_UNIVERSAL_TIME_OFFSET ( 1, 0, .AHEAD. ) ;
#128 = DIRECTION ( 'NONE',  ( 0.0000000000000000000, 1.000000000000000000, 0.0000000000000000000 ) ) ;
#129 = COORDINATED_UNIVERSAL_TIME_OFFSET ( 1, 0, .AHEAD. ) ;
#130 = PERSON_AND_ORGANIZATION ( #119, #302 ) ;
#131 = EDGE_CURVE ( 'NONE', #56, #56, #282, .T. ) ;
#132 = AXIS2_PLACEMENT_3D ( 'NONE', #281, #256, #162 ) ;
#133 = CARTESIAN_POINT ( 'NONE',  ( 8.728703347107829444E-16, -3.061616997868381785E-17, 0.2499999999999998890 ) ) ;
#134 = DIRECTION ( 'NONE',  ( 0.0000000000000000000, -1.000000000000000000, 0.0000000000000000000 ) ) ;
#135 = FACE_OUTER_BOUND ( 'NONE', #50, .T. ) ;
#136 = CYLINDRICAL_SURFACE ( 'NONE', #266, 0.7999999999999994893 ) ;
#137 = CC_DESIGN_DATE_AND_TIME_ASSIGNMENT ( #5, #77, ( #42 ) ) ;
#138 = AXIS2_PLACEMENT_3D ( 'NONE', #4, #73, #97 ) ;
#139 = MANIFOLD_SOLID_BREP ( 'Corps-Déplacer/Copier1[1]', #220 ) ;
#140 = EDGE_LOOP ( 'NONE', ( #250 ) ) ;
#141 = EDGE_LOOP ( 'NONE', ( #301 ) ) ;
#142 = CARTESIAN_POINT ( 'NONE',  ( 0.0000000000000000000, 0.0000000000000000000, 0.0000000000000000000 ) ) ;
#143 = DIRECTION ( 'NONE',  ( -3.491481338843133355E-15, 1.224646799147353207E-16, -1.000000000000000000 ) ) ;
#144 = FACE_OUTER_BOUND ( 'NONE', #46, .T. ) ;
#145 = AXIS2_PLACEMENT_3D ( 'NONE', #303, #143, #216 ) ;
#146 = CARTESIAN_POINT ( 'NONE',  ( 1.745740669421566678E-13, 8.998558695971067645E-33, 50.00000000000000000 ) ) ;
#147 = CARTESIAN_POINT ( 'NONE',  ( 0.0000000000000000000, 0.0000000000000000000, 0.0000000000000000000 ) ) ;
#148 = CIRCLE ( 'NONE', #178, 0.7999999999999999334 ) ;
#149 = CALENDAR_DATE ( 2021, 1, 12 ) ;
#150 = APPROVAL_PERSON_ORGANIZATION ( #29, #65, #99 ) ;
#152 = DIRECTION ( 'NONE',  ( 0.0000000000000000000, 1.000000000000000000, 0.0000000000000000000 ) ) ;
#151 = CARTESIAN_POINT ( 'NONE',  ( 2.504511167915744066E-14, -8.784642641776459355E-16, 7.173205080756893004 ) ) ;
#153 = DIRECTION ( 'NONE',  ( -3.491481338843133355E-15, 1.224646799147353207E-16, -1.000000000000000000 ) ) ;
#154 = CC_DESIGN_PERSON_AND_ORGANIZATION_ASSIGNMENT ( #193, #10, ( #51 ) ) ;
#155 = AXIS2_PLACEMENT_3D ( 'NONE', #284, #163, #188 ) ;
#156 = DIRECTION ( 'NONE',  ( 0.0000000000000000000, 1.000000000000000000, 0.0000000000000000000 ) ) ;
#157 = LOCAL_TIME ( 15, 3, 47.00000000000000000, #127 ) ;
#158 = FACE_OUTER_BOUND ( 'NONE', #91, .T. ) ;
#159 = SECURITY_CLASSIFICATION ( '', '', #290 ) ;
#160 = EDGE_LOOP ( 'NONE', ( #70 ) ) ;
#161 = AXIS2_PLACEMENT_3D ( 'NONE', #84, #268, #300 ) ;
#162 = DIRECTION ( 'NONE',  ( 4.814824860968095763E-31, 1.000000000000000000, 1.355252715606882268E-16 ) ) ;
#163 = DIRECTION ( 'NONE',  ( -3.491481338843133355E-15, 1.224646799147353207E-16, -1.000000000000000000 ) ) ;
#164 = ORIENTED_EDGE ( 'NONE', *, *, #244, .F. ) ;
#165 = PLANE ( 'NONE',  #138 ) ;
#166 = DATE_AND_TIME ( #76, #78 ) ;
#167 = ADVANCED_FACE ( 'NONE', ( #18, #116 ), #45, .F. ) ;
#168 = DATE_TIME_ROLE ( 'classification_date' ) ;
#169 = CARTESIAN_POINT ( 'NONE',  ( 2.444036937190193349E-14, 0.7999999999999990452, 7.000000000000000000 ) ) ;
#170 = CALENDAR_DATE ( 2021, 1, 12 ) ;
#171 = PRODUCT_DEFINITION_FORMATION_WITH_SPECIFIED_SOURCE ( 'ANY', '', #51, .NOT_KNOWN. ) ;
#172 = CLOSED_SHELL ( 'NONE', ( #198, #258, #201, #118 ) ) ;
#173 = APPROVAL_STATUS ( 'not_yet_approved' ) ;
#174 = COORDINATED_UNIVERSAL_TIME_OFFSET ( 1, 0, .AHEAD. ) ;
#175 = APPROVAL_PERSON_ORGANIZATION ( #283, #126, #122 ) ;
#176 = EDGE_CURVE ( 'NONE', #53, #53, #204, .T. ) ;
#177 = FACE_OUTER_BOUND ( 'NONE', #86, .T. ) ;
#178 = AXIS2_PLACEMENT_3D ( 'NONE', #102, #15, #156 ) ;
#179 = EDGE_LOOP ( 'NONE', ( #89 ) ) ;
#180 = CIRCLE ( 'NONE', #245, 1.499999999999996447 ) ;
#181 = ORIENTED_EDGE ( 'NONE', *, *, #131, .F. ) ;
#182 = ORIENTED_EDGE ( 'NONE', *, *, #115, .T. ) ;
#183 = ORIENTED_EDGE ( 'NONE', *, *, #298, .F. ) ;
#184 = DIRECTION ( 'NONE',  ( 4.275831445896958607E-31, 1.000000000000000000, 1.224646799147353207E-16 ) ) ;
#185 = DIRECTION ( 'NONE',  ( 3.491481338843133355E-15, -1.224646799147353207E-16, 1.000000000000000000 ) ) ;
#186 = ADVANCED_FACE ( 'NONE', ( #109, #264 ), #194, .T. ) ;
#187 = CC_DESIGN_SECURITY_CLASSIFICATION ( #159, ( #171 ) ) ;
#188 = DIRECTION ( 'NONE',  ( 0.0000000000000000000, 1.000000000000000000, 0.0000000000000000000 ) ) ;
#189 = APPLICATION_PROTOCOL_DEFINITION ( 'international standard', 'config_control_design', 1994, #66 ) ;
#190 = DIRECTION ( 'NONE',  ( 0.0000000000000000000, 0.0000000000000000000, 1.000000000000000000 ) ) ;
#191 = FACE_OUTER_BOUND ( 'NONE', #19, .T. ) ;
#192 = EDGE_LOOP ( 'NONE', ( #273 ) ) ;
#193 = PERSON_AND_ORGANIZATION ( #119, #302 ) ;
#194 = CYLINDRICAL_SURFACE ( 'NONE', #294, 0.6999999999999992895 ) ;
#195 = PERSON_AND_ORGANIZATION_ROLE ( 'creator' ) ;
#196 = CC_DESIGN_PERSON_AND_ORGANIZATION_ASSIGNMENT ( #130, #288, ( #42 ) ) ;
#197 = ORIENTED_EDGE ( 'NONE', *, *, #298, .T. ) ;
#198 = ADVANCED_FACE ( 'NONE', ( #111 ), #225, .F. ) ;
#199 = CARTESIAN_POINT ( 'NONE',  ( 0.0000000000000000000, 0.6556624327025948329, 0.0000000000000000000 ) ) ;
#200 = CC_DESIGN_APPROVAL ( #14, ( #171 ) ) ;
#201 = ADVANCED_FACE ( 'NONE', ( #297, #177 ), #136, .T. ) ;
#202 = ORIENTED_EDGE ( 'NONE', *, *, #75, .F. ) ;
#203 = UNCERTAINTY_MEASURE_WITH_UNIT (LENGTH_MEASURE( 1.000000000000000082E-05 ), #79, 'distance_accuracy_value', 'NONE');
#204 = CIRCLE ( 'NONE', #110, 0.6556624327025948329 ) ;
#205 = FACE_BOUND ( 'NONE', #140, .T. ) ;
#206 = CARTESIAN_POINT ( 'NONE',  ( 6.882408986718216452E-14, -2.414024111267381345E-15, 19.71200278274616835 ) ) ;
#207 = PLANE ( 'NONE',  #100 ) ;
#208 = CIRCLE ( 'NONE', #67, 0.6999999999999987343 ) ;
#209 = PERSON_AND_ORGANIZATION_ROLE ( 'classification_officer' ) ;
#210 = CARTESIAN_POINT ( 'NONE',  ( 0.0000000000000000000, 0.0000000000000000000, 0.0000000000000000000 ) ) ;
#211 = DIRECTION ( 'NONE',  ( -3.491481338843133355E-15, 1.224646799147353207E-16, -1.000000000000000000 ) ) ;
#212 = ADVANCED_FACE ( 'NONE', ( #123 ), #165, .F. ) ;
#213 = CARTESIAN_POINT ( 'NONE',  ( -2.803502047643053328E-31, 9.833361475695883871E-33, -8.029548995303995262E-17 ) ) ;
#214 = CARTESIAN_POINT ( 'NONE',  ( 2.444036937190193349E-14, 0.7999999999999990452, 7.000000000000000000 ) ) ;
#215 = DIRECTION ( 'NONE',  ( 4.275831445896958607E-31, 1.000000000000000000, 1.224646799147352961E-16 ) ) ;
#216 = DIRECTION ( 'NONE',  ( 0.0000000000000000000, 1.000000000000000000, 0.0000000000000000000 ) ) ;
#217 = VERTEX_POINT ( 'NONE', #271 ) ;
#218 = CALENDAR_DATE ( 2021, 1, 12 ) ;
#219 = CC_DESIGN_APPROVAL ( #65, ( #159 ) ) ;
#220 = CLOSED_SHELL ( 'NONE', ( #212, #38, #186, #167, #252, #296, #247, #107 ) ) ;
#221 = VERTEX_POINT ( 'NONE', #64 ) ;
#222 = DIRECTION ( 'NONE',  ( -4.814824860968095763E-31, -1.000000000000000000, -1.355252715606882268E-16 ) ) ;
#223 = ORIENTED_EDGE ( 'NONE', *, *, #85, .T. ) ;
#224 = VERTEX_POINT ( 'NONE', #226 ) ;
#225 = PLANE ( 'NONE',  #259 ) ;
#226 = CARTESIAN_POINT ( 'NONE',  ( 1.745740669421566678E-13, 1.199999999999995515, 50.00000000000000000 ) ) ;
#227 = EDGE_LOOP ( 'NONE', ( #181 ) ) ;
#228 = CARTESIAN_POINT ( 'NONE',  ( 6.882408986718216452E-14, 1.499999999999994005, 19.71200278274616835 ) ) ;
#229 = EDGE_CURVE ( 'NONE', #96, #96, #125, .T. ) ;
#230 = PRODUCT_DEFINITION_SHAPE ( 'NONE', 'NONE',  #42 ) ;
#231 = ORIENTED_EDGE ( 'NONE', *, *, #229, .F. ) ;
#232 = DESIGN_CONTEXT ( 'detailed design', #112, 'design' ) ;
#233 = CONICAL_SURFACE ( 'NONE', #8, 0.7999999999999990452, 0.5235987755982924874 ) ;
#234 = CC_DESIGN_DATE_AND_TIME_ASSIGNMENT ( #166, #168, ( #159 ) ) ;
#235 = APPROVAL_ROLE ( '' ) ;
#236 = CYLINDRICAL_SURFACE ( 'NONE', #88, 1.499999999999998890 ) ;
#237 = DIRECTION ( 'NONE',  ( 1.000000000000000000, 0.0000000000000000000, 0.0000000000000000000 ) ) ;
#238 = DATE_AND_TIME ( #149, #286 ) ;
#239 = CARTESIAN_POINT ( 'NONE',  ( 5.358479882634336420E-14, -1.879501735712543696E-15, 15.34729635533384773 ) ) ;
#240 = CC_DESIGN_PERSON_AND_ORGANIZATION_ASSIGNMENT ( #32, #195, ( #171 ) ) ;
#241 =( NAMED_UNIT ( * ) SI_UNIT ( $, .STERADIAN. ) SOLID_ANGLE_UNIT ( ) );
#242 = APPLICATION_PROTOCOL_DEFINITION ( 'international standard', 'config_control_design', 1994, #112 ) ;
#243 = EDGE_CURVE ( 'NONE', #221, #221, #208, .T. ) ;
#244 = EDGE_CURVE ( 'NONE', #224, #224, #114, .T. ) ;
#245 = AXIS2_PLACEMENT_3D ( 'NONE', #206, #7, #128 ) ;
#246 = AXIS2_PLACEMENT_3D ( 'NONE', #9, #108, #134 ) ;
#247 = ADVANCED_FACE ( 'NONE', ( #6, #103 ), #22, .T. ) ;
#248 = FACE_OUTER_BOUND ( 'NONE', #291, .T. ) ;
#249 = EDGE_LOOP ( 'NONE', ( #71 ) ) ;
#250 = ORIENTED_EDGE ( 'NONE', *, *, #243, .T. ) ;
#251 = AXIS2_PLACEMENT_3D ( 'NONE', #43, #185, #98 ) ;
#252 = ADVANCED_FACE ( 'NONE', ( #262, #248 ), #58, .T. ) ;
#253 = EDGE_LOOP ( 'NONE', ( #182 ) ) ;
#254 = DIRECTION ( 'NONE',  ( -3.491481338843133355E-15, 1.224646799147353207E-16, -1.000000000000000000 ) ) ;
#255 =( NAMED_UNIT ( * ) PLANE_ANGLE_UNIT ( ) SI_UNIT ( $, .RADIAN. ) );
#256 = DIRECTION ( 'NONE',  ( -3.491481338843133355E-15, 1.224646799147353207E-16, -1.000000000000000000 ) ) ;
#257 = APPROVAL_DATE_TIME ( #285, #126 ) ;
#258 = ADVANCED_FACE ( 'NONE', ( #34, #287 ), #233, .T. ) ;
#259 = AXIS2_PLACEMENT_3D ( 'NONE', #16, #113, #44 ) ;
#260 = APPROVAL_STATUS ( 'not_yet_approved' ) ;
#261 = COORDINATED_UNIVERSAL_TIME_OFFSET ( 1, 0, .AHEAD. ) ;
#262 = FACE_BOUND ( 'NONE', #68, .T. ) ;
#263 = DATE_AND_TIME ( #218, #105 ) ;
#264 = FACE_OUTER_BOUND ( 'NONE', #192, .T. ) ;
#265 = CIRCLE ( 'NONE', #161, 1.500000000000001554 ) ;
#266 = AXIS2_PLACEMENT_3D ( 'NONE', #210, #23, #184 ) ;
#267 = ORIENTED_EDGE ( 'NONE', *, *, #85, .F. ) ;
#268 = DIRECTION ( 'NONE',  ( -3.491481338843133355E-15, 1.224646799147353207E-16, -1.000000000000000000 ) ) ;
#269 = ORIENTED_EDGE ( 'NONE', *, *, #115, .F. ) ;
#270 = LOCAL_TIME ( 15, 3, 47.00000000000000000, #261 ) ;
#271 = CARTESIAN_POINT ( 'NONE',  ( 5.237222008264699402E-14, 0.6999999999999979572, 14.99999999999999822 ) ) ;
#272 = ORIENTED_EDGE ( 'NONE', *, *, #131, .T. ) ;
#273 = ORIENTED_EDGE ( 'NONE', *, *, #93, .T. ) ;
#274 = EDGE_LOOP ( 'NONE', ( #48 ) ) ;
#275 = DIRECTION ( 'NONE',  ( 4.275831445896958607E-31, 1.000000000000000000, 1.224646799147353454E-16 ) ) ;
#276 = CIRCLE ( 'NONE', #292, 0.7303844939755809174 ) ;
#277 = CARTESIAN_POINT ( 'NONE',  ( 5.237222008264700033E-14, -1.734723475976807094E-15, 15.00000000000000000 ) ) ;
#278 = AXIS2_PLACEMENT_3D ( 'NONE', #147, #190, #237 ) ;
#279 = CALENDAR_DATE ( 2021, 1, 12 ) ;
#280 = DIRECTION ( 'NONE',  ( -3.491481338843133355E-15, 1.224646799147353207E-16, -1.000000000000000000 ) ) ;
#281 = CARTESIAN_POINT ( 'NONE',  ( 8.728703347107829444E-16, -3.061616997868381785E-17, 0.2499999999999998890 ) ) ;
#282 = CIRCLE ( 'NONE', #132, 0.7999999999999990452 ) ;
#283 = PERSON_AND_ORGANIZATION ( #119, #302 ) ;
#284 = CARTESIAN_POINT ( 'NONE',  ( 2.444036937190193349E-14, -8.572527594031473190E-16, 7.000000000000000000 ) ) ;
#285 = DATE_AND_TIME ( #170, #270 ) ;
#286 = LOCAL_TIME ( 15, 3, 47.00000000000000000, #57 ) ;
#287 = FACE_OUTER_BOUND ( 'NONE', #295, .T. ) ;
#288 = PERSON_AND_ORGANIZATION_ROLE ( 'creator' ) ;
#289 = CC_DESIGN_PERSON_AND_ORGANIZATION_ASSIGNMENT ( #1, #60, ( #171 ) ) ;
#290 = SECURITY_CLASSIFICATION_LEVEL ( 'unclassified' ) ;
#291 = EDGE_LOOP ( 'NONE', ( #197 ) ) ;
#292 = AXIS2_PLACEMENT_3D ( 'NONE', #239, #280, #152 ) ;
#293 = CARTESIAN_POINT ( 'NONE',  ( 8.728703347107833388E-16, 0.7999999999999990452, 0.2500000000000000000 ) ) ;
#294 = AXIS2_PLACEMENT_3D ( 'NONE', #69, #35, #40 ) ;
#295 = EDGE_LOOP ( 'NONE', ( #272 ) ) ;
#296 = ADVANCED_FACE ( 'NONE', ( #191, #36 ), #236, .T. ) ;
#297 = FACE_OUTER_BOUND ( 'NONE', #227, .T. ) ;
#298 = EDGE_CURVE ( 'NONE', #92, #92, #180, .T. ) ;
#299 = AXIS2_PLACEMENT_3D ( 'NONE', #30, #20, #120 ) ;
#300 = DIRECTION ( 'NONE',  ( 0.0000000000000000000, 1.000000000000000000, 0.0000000000000000000 ) ) ;
#301 = ORIENTED_EDGE ( 'NONE', *, *, #93, .F. ) ;
#302 = ORGANIZATION ( 'UNSPECIFIED', 'UNSPECIFIED', '' ) ;
#303 = CARTESIAN_POINT ( 'NONE',  ( 1.745740669421566678E-13, -6.123233995736766085E-15, 50.00000000000000000 ) ) ;
ENDSEC;
END-ISO-10303-21;
