ISO-10303-21;
HEADER;
FILE_DESCRIPTION (( 'STEP AP203' ),
    '1' );
FILE_NAME ('200793.step',
    '2021-12-01T14:03:46',
    ( '' ),
    ( '' ),
    'SwSTEP 2.0',
    'SolidWorks 2019',
    '' );
FILE_SCHEMA (( 'CONFIG_CONTROL_DESIGN' ));
ENDSEC;

DATA;
#1 = ORIENTED_EDGE ( 'NONE', *, *, #111, .F. ) ;
#2 = CALENDAR_DATE ( 2021, 1, 12 ) ;
#3 = CARTESIAN_POINT ( 'NONE',  ( 7.613034594122895434E-14, -2.670293076972264762E-15, 21.80459769160730232 ) ) ;
#4 = CC_DESIGN_DATE_AND_TIME_ASSIGNMENT ( #257, #263, ( #265 ) ) ;
#5 = TOROIDAL_SURFACE ( 'NONE', #162, 2.860000000000000320, 2.000000000000000000 ) ;
#6 = AXIS2_PLACEMENT_3D ( 'NONE', #209, #183, #281 ) ;
#7 = CARTESIAN_POINT ( 'NONE',  ( 8.728703347107829444E-16, -3.061616997868381785E-17, 0.2499999999999998890 ) ) ;
#8 = PRODUCT_DEFINITION_FORMATION_WITH_SPECIFIED_SOURCE ( 'ANY', '', #47, .NOT_KNOWN. ) ;
#9 = CARTESIAN_POINT ( 'NONE',  ( 6.284666409917640040E-14, -2.204364238465235428E-15, 18.00000000000000000 ) ) ;
#10 = CIRCLE ( 'NONE', #261, 1.009999999999998899 ) ;
#11 = CYLINDRICAL_SURFACE ( 'NONE', #45, 0.8599999999999994316 ) ;
#12 = ADVANCED_FACE ( 'NONE', ( #40, #106 ), #186, .T. ) ;
#13 = CARTESIAN_POINT ( 'NONE',  ( 6.284666409917640040E-14, -2.168404344971008868E-15, 18.00000000000000000 ) ) ;
#14 = SECURITY_CLASSIFICATION_LEVEL ( 'unclassified' ) ;
#15 = DIRECTION ( 'NONE',  ( 3.491481338843133355E-15, -1.224646799147353207E-16, 1.000000000000000000 ) ) ;
#16 = DATE_AND_TIME ( #205, #284 ) ;
#17 = EDGE_LOOP ( 'NONE', ( #148 ) ) ;
#18 = DIRECTION ( 'NONE',  ( 0.0000000000000000000, 1.000000000000000000, 0.0000000000000000000 ) ) ;
#19 = DIRECTION ( 'NONE',  ( -3.491481338843133355E-15, 1.224646799147353207E-16, -1.000000000000000000 ) ) ;
#20 = EDGE_CURVE ( 'NONE', #122, #122, #30, .T. ) ;
#21 = CIRCLE ( 'NONE', #66, 0.8656624327025946863 ) ;
#22 = DIRECTION ( 'NONE',  ( -3.491481338843133355E-15, 1.224646799147353207E-16, -1.000000000000000000 ) ) ;
#23 = APPROVAL_ROLE ( '' ) ;
#24 = APPROVAL ( #269, 'UNSPECIFIED' ) ;
#25 = ADVANCED_FACE ( 'NONE', ( #233, #229 ), #232, .T. ) ;
#26 = CYLINDRICAL_SURFACE ( 'NONE', #136, 1.009999999999999565 ) ;
#27 = PLANE ( 'NONE',  #239 ) ;
#28 = FACE_OUTER_BOUND ( 'NONE', #179, .T. ) ;
#29 = PLANE ( 'NONE',  #289 ) ;
#30 = CIRCLE ( 'NONE', #119, 1.500000000000001554 ) ;
#31 = DIRECTION ( 'NONE',  ( 3.491481338843133355E-15, -1.224646799147353207E-16, 1.000000000000000000 ) ) ;
#32 = FACE_BOUND ( 'NONE', #112, .T. ) ;
#33 = DATE_TIME_ROLE ( 'creation_date' ) ;
#34 = ORIENTED_EDGE ( 'NONE', *, *, #20, .F. ) ;
#35 = PERSON_AND_ORGANIZATION ( #164, #91 ) ;
#36 = AXIS2_PLACEMENT_3D ( 'NONE', #149, #301, #303 ) ;
#37 = UNCERTAINTY_MEASURE_WITH_UNIT (LENGTH_MEASURE( 1.000000000000000082E-05 ), #64, 'distance_accuracy_value', 'NONE');
#38 = AXIS2_PLACEMENT_3D ( 'NONE', #246, #103, #123 ) ;
#39 = DIRECTION ( 'NONE',  ( 0.0000000000000000000, 0.0000000000000000000, 1.000000000000000000 ) ) ;
#40 = FACE_OUTER_BOUND ( 'NONE', #182, .T. ) ;
#41 = COORDINATED_UNIVERSAL_TIME_OFFSET ( 1, 0, .AHEAD. ) ;
#42 = CARTESIAN_POINT ( 'NONE',  ( 2.793185071074506684E-14, 7.573786902442366414E-33, 8.000000000000000000 ) ) ;
#43 = APPROVAL_PERSON_ORGANIZATION ( #247, #254, #84 ) ;
#44 = DIRECTION ( 'NONE',  ( -3.491481338843133355E-15, 1.224646799147353207E-16, -1.000000000000000000 ) ) ;
#45 = AXIS2_PLACEMENT_3D ( 'NONE', #221, #170, #79 ) ;
#46 = MANIFOLD_SOLID_BREP ( 'Corps-Déplacer/Copier1[1]', #131 ) ;
#47 = PRODUCT ( '200793', '200793', '', ( #224 ) ) ;
#48 = APPROVAL_PERSON_ORGANIZATION ( #189, #24, #23 ) ;
#49 = CARTESIAN_POINT ( 'NONE',  ( 2.883896417162832445E-14, -1.011534696479630343E-15, 8.259807621135337286 ) ) ;
#50 = AXIS2_PLACEMENT_3D ( 'NONE', #168, #102, #125 ) ;
#51 = COORDINATED_UNIVERSAL_TIME_OFFSET ( 1, 0, .AHEAD. ) ;
#52 = LOCAL_TIME ( 15, 3, 46.00000000000000000, #41 ) ;
#53 = FACE_BOUND ( 'NONE', #154, .T. ) ;
#54 = CC_DESIGN_PERSON_AND_ORGANIZATION_ASSIGNMENT ( #104, #288, ( #265 ) ) ;
#55 = APPLICATION_PROTOCOL_DEFINITION ( 'international standard', 'config_control_design', 1994, #151 ) ;
#56 = DIRECTION ( 'NONE',  ( 4.275831445896958607E-31, 1.000000000000000000, 1.224646799147353207E-16 ) ) ;
#57 = VERTEX_POINT ( 'NONE', #145 ) ;
#58 = CARTESIAN_POINT ( 'NONE',  ( 8.728703347107829444E-16, -3.061616997868381785E-17, 0.2499999999999998890 ) ) ;
#59 = EDGE_LOOP ( 'NONE', ( #34 ) ) ;
#60 = CARTESIAN_POINT ( 'NONE',  ( 2.883896417162832445E-14, 0.8599999999999977662, 8.259807621135337286 ) ) ;
#61 = FACE_OUTER_BOUND ( 'NONE', #17, .T. ) ;
#62 = VERTEX_POINT ( 'NONE', #108 ) ;
#63 = ORIENTED_EDGE ( 'NONE', *, *, #270, .F. ) ;
#64 =( LENGTH_UNIT ( ) NAMED_UNIT ( * ) SI_UNIT ( .MILLI., .METRE. ) );
#65 = EDGE_LOOP ( 'NONE', ( #63 ) ) ;
#66 = AXIS2_PLACEMENT_3D ( 'NONE', #243, #196, #73 ) ;
#67 = COORDINATED_UNIVERSAL_TIME_OFFSET ( 1, 0, .AHEAD. ) ;
#68 = FACE_OUTER_BOUND ( 'NONE', #282, .T. ) ;
#69 = EDGE_LOOP ( 'NONE', ( #299 ) ) ;
#70 = AXIS2_PLACEMENT_3D ( 'NONE', #147, #99, #142 ) ;
#71 = LOCAL_TIME ( 15, 3, 46.00000000000000000, #51 ) ;
#72 = CIRCLE ( 'NONE', #70, 1.200000000000001732 ) ;
#73 = DIRECTION ( 'NONE',  ( 4.275831445896958607E-31, 1.000000000000000000, 1.224646799147353207E-16 ) ) ;
#74 = ADVANCED_FACE ( 'NONE', ( #61 ), #206, .F. ) ;
#75 = CIRCLE ( 'NONE', #238, 1.010000000000000009 ) ;
#76 = AXIS2_PLACEMENT_3D ( 'NONE', #7, #144, #98 ) ;
#77 = DIRECTION ( 'NONE',  ( -3.491481338843133355E-15, 1.224646799147353207E-16, -1.000000000000000000 ) ) ;
#78 = CONICAL_SURFACE ( 'NONE', #76, 1.009999999999998899, 0.5235987755982922653 ) ;
#79 = DIRECTION ( 'NONE',  ( 4.275831445896958607E-31, 1.000000000000000000, 1.224646799147353207E-16 ) ) ;
#80 = LOCAL_TIME ( 15, 3, 46.00000000000000000, #212 ) ;
#81 = ORIENTED_EDGE ( 'NONE', *, *, #187, .T. ) ;
#82 = VERTEX_POINT ( 'NONE', #227 ) ;
#83 = ORIENTED_EDGE ( 'NONE', *, *, #92, .T. ) ;
#84 = APPROVAL_ROLE ( '' ) ;
#85 = APPLICATION_PROTOCOL_DEFINITION ( 'international standard', 'config_control_design', 1994, #267 ) ;
#86 = EDGE_LOOP ( 'NONE', ( #133 ) ) ;
#87 = ORIENTED_EDGE ( 'NONE', *, *, #129, .T. ) ;
#88 = EDGE_LOOP ( 'NONE', ( #251 ) ) ;
#89 = PERSON_AND_ORGANIZATION_ROLE ( 'creator' ) ;
#90 = CC_DESIGN_PERSON_AND_ORGANIZATION_ASSIGNMENT ( #283, #259, ( #8 ) ) ;
#91 = ORGANIZATION ( 'UNSPECIFIED', 'UNSPECIFIED', '' ) ;
#92 = EDGE_CURVE ( 'NONE', #171, #171, #96, .T. ) ;
#93 = DIRECTION ( 'NONE',  ( -3.491481338843133355E-15, 1.224646799147353207E-16, -1.000000000000000000 ) ) ;
#94 = ADVANCED_FACE ( 'NONE', ( #68 ), #158, .F. ) ;
#95 = CALENDAR_DATE ( 2021, 1, 12 ) ;
#96 = CIRCLE ( 'NONE', #6, 0.8903844939755807264 ) ;
#97 = ADVANCED_BREP_SHAPE_REPRESENTATION ( '200793', ( #46, #253, #152 ), #137 ) ;
#98 = DIRECTION ( 'NONE',  ( -3.813722662152946437E-31, -1.000000000000000000, -1.073467497510401599E-16 ) ) ;
#99 = DIRECTION ( 'NONE',  ( -3.491481338843133355E-15, 1.224646799147353207E-16, -1.000000000000000000 ) ) ;
#100 = CIRCLE ( 'NONE', #285, 0.8599999999999987654 ) ;
#101 = DIRECTION ( 'NONE',  ( 0.0000000000000000000, 1.000000000000000000, 0.0000000000000000000 ) ) ;
#102 = DIRECTION ( 'NONE',  ( -3.491481338843133355E-15, 1.224646799147353207E-16, -1.000000000000000000 ) ) ;
#103 = DIRECTION ( 'NONE',  ( -3.491481338843133355E-15, 1.224646799147353207E-16, -1.000000000000000000 ) ) ;
#104 = PERSON_AND_ORGANIZATION ( #164, #91 ) ;
#105 =( NAMED_UNIT ( * ) SI_UNIT ( $, .STERADIAN. ) SOLID_ANGLE_UNIT ( ) );
#106 = FACE_OUTER_BOUND ( 'NONE', #126, .T. ) ;
#107 = CIRCLE ( 'NONE', #295, 0.8600000000000000977 ) ;
#108 = CARTESIAN_POINT ( 'NONE',  ( 1.745740669421566678E-13, 1.199999999999995515, 50.00000000000000000 ) ) ;
#109 = DIRECTION ( 'NONE',  ( -3.491481338843133355E-15, 1.224646799147353207E-16, -1.000000000000000000 ) ) ;
#110 = CC_DESIGN_PERSON_AND_ORGANIZATION_ASSIGNMENT ( #184, #89, ( #8 ) ) ;
#111 = EDGE_CURVE ( 'NONE', #57, #57, #215, .T. ) ;
#112 = EDGE_LOOP ( 'NONE', ( #81 ) ) ;
#113 = APPROVAL_DATE_TIME ( #16, #24 ) ;
#114 = EDGE_LOOP ( 'NONE', ( #225 ) ) ;
#115 = FACE_OUTER_BOUND ( 'NONE', #59, .T. ) ;
#116 = CC_DESIGN_APPROVAL ( #254, ( #265 ) ) ;
#117 = EDGE_CURVE ( 'NONE', #245, #245, #75, .T. ) ;
#118 = CONICAL_SURFACE ( 'NONE', #173, 1.200000000000001732, 0.7853981633974453924 ) ;
#119 = AXIS2_PLACEMENT_3D ( 'NONE', #258, #109, #18 ) ;
#120 = CARTESIAN_POINT ( 'NONE',  ( 0.0000000000000000000, 0.0000000000000000000, 0.0000000000000000000 ) ) ;
#121 = DIRECTION ( 'NONE',  ( 4.275831445896959482E-31, 1.000000000000000000, 1.224646799147353454E-16 ) ) ;
#122 = VERTEX_POINT ( 'NONE', #220 ) ;
#123 = DIRECTION ( 'NONE',  ( 0.0000000000000000000, 1.000000000000000000, 0.0000000000000000000 ) ) ;
#124 = ADVANCED_FACE ( 'NONE', ( #115, #32 ), #118, .T. ) ;
#125 = DIRECTION ( 'NONE',  ( 0.0000000000000000000, 1.000000000000000000, 0.0000000000000000000 ) ) ;
#126 = EDGE_LOOP ( 'NONE', ( #198 ) ) ;
#127 = VERTEX_POINT ( 'NONE', #60 ) ;
#128 = DIRECTION ( 'NONE',  ( 4.275831445896958607E-31, 1.000000000000000000, 1.224646799147353454E-16 ) ) ;
#129 = EDGE_CURVE ( 'NONE', #127, #127, #100, .T. ) ;
#130 = EDGE_LOOP ( 'NONE', ( #150 ) ) ;
#131 = CLOSED_SHELL ( 'NONE', ( #94, #200, #138, #290, #25, #12, #124, #74 ) ) ;
#132 = PERSON_AND_ORGANIZATION ( #164, #91 ) ;
#133 = ORIENTED_EDGE ( 'NONE', *, *, #193, .F. ) ;
#134 = DIRECTION ( 'NONE',  ( 0.0000000000000000000, 1.000000000000000000, 0.0000000000000000000 ) ) ;
#135 = DIRECTION ( 'NONE',  ( 0.0000000000000000000, 1.000000000000000000, 0.0000000000000000000 ) ) ;
#136 = AXIS2_PLACEMENT_3D ( 'NONE', #120, #292, #121 ) ;
#137 =( GEOMETRIC_REPRESENTATION_CONTEXT ( 3 ) GLOBAL_UNCERTAINTY_ASSIGNED_CONTEXT ( ( #37 ) ) GLOBAL_UNIT_ASSIGNED_CONTEXT ( ( #64, #178, #105 ) ) REPRESENTATION_CONTEXT ( 'NONE', 'WORKASPACE' ) );
#138 = ADVANCED_FACE ( 'NONE', ( #236, #190 ), #11, .T. ) ;
#139 = APPROVAL_ROLE ( '' ) ;
#140 = CONICAL_SURFACE ( 'NONE', #38, 0.8599999999999987654, 0.5235987755982940417 ) ;
#141 = APPROVAL ( #213, 'UNSPECIFIED' ) ;
#142 = DIRECTION ( 'NONE',  ( 0.0000000000000000000, 1.000000000000000000, 0.0000000000000000000 ) ) ;
#143 = FACE_OUTER_BOUND ( 'NONE', #278, .T. ) ;
#144 = DIRECTION ( 'NONE',  ( 3.491481338843133355E-15, -1.224646799147353207E-16, 1.000000000000000000 ) ) ;
#145 = CARTESIAN_POINT ( 'NONE',  ( 7.613034594122895434E-14, 1.499999999999994005, 21.80459769160730232 ) ) ;
#146 = EDGE_CURVE ( 'NONE', #275, #275, #10, .T. ) ;
#147 = CARTESIAN_POINT ( 'NONE',  ( 1.745740669421566678E-13, -6.123233995736766085E-15, 50.00000000000000000 ) ) ;
#148 = ORIENTED_EDGE ( 'NONE', *, *, #187, .F. ) ;
#149 = CARTESIAN_POINT ( 'NONE',  ( 1.745740669421566678E-13, 8.998558695971067645E-33, 50.00000000000000000 ) ) ;
#150 = ORIENTED_EDGE ( 'NONE', *, *, #92, .F. ) ;
#151 = APPLICATION_CONTEXT ( 'configuration controlled 3d designs of mechanical parts and assemblies' ) ;
#152 = AXIS2_PLACEMENT_3D ( 'NONE', #255, #39, #297 ) ;
#153 = VERTEX_POINT ( 'NONE', #298 ) ;
#154 = EDGE_LOOP ( 'NONE', ( #156 ) ) ;
#155 = APPROVAL_DATE_TIME ( #264, #141 ) ;
#156 = ORIENTED_EDGE ( 'NONE', *, *, #242, .F. ) ;
#157 = PERSON_AND_ORGANIZATION_ROLE ( 'creator' ) ;
#158 = PLANE ( 'NONE',  #208 ) ;
#159 = DIRECTION ( 'NONE',  ( -4.275831445896958607E-31, -1.000000000000000000, -1.224646799147353207E-16 ) ) ;
#160 = PRODUCT_DEFINITION_SHAPE ( 'NONE', 'NONE',  #228 ) ;
#161 = CLOSED_SHELL ( 'NONE', ( #237, #300, #293, #262 ) ) ;
#162 = AXIS2_PLACEMENT_3D ( 'NONE', #13, #294, #56 ) ;
#163 = CC_DESIGN_PERSON_AND_ORGANIZATION_ASSIGNMENT ( #132, #157, ( #228 ) ) ;
#164 = PERSON ( 'UNSPECIFIED', 'UNSPECIFIED', 'UNSPECIFIED', ('UNSPECIFIED'), ('UNSPECIFIED'), ('UNSPECIFIED') ) ;
#165 = AXIS2_PLACEMENT_3D ( 'NONE', #202, #22, #128 ) ;
#166 = DIRECTION ( 'NONE',  ( 0.0000000000000000000, 1.000000000000000000, 0.0000000000000000000 ) ) ;
#167 = FACE_OUTER_BOUND ( 'NONE', #88, .T. ) ;
#168 = CARTESIAN_POINT ( 'NONE',  ( 2.793185071074506684E-14, -9.797174393178825657E-16, 8.000000000000000000 ) ) ;
#169 = AXIS2_PLACEMENT_3D ( 'NONE', #204, #15, #230 ) ;
#170 = DIRECTION ( 'NONE',  ( -3.491481338843133355E-15, 1.224646799147353207E-16, -1.000000000000000000 ) ) ;
#171 = VERTEX_POINT ( 'NONE', #271 ) ;
#172 = DIRECTION ( 'NONE',  ( -4.275831445896958607E-31, -1.000000000000000000, -1.224646799147353207E-16 ) ) ;
#173 = AXIS2_PLACEMENT_3D ( 'NONE', #226, #93, #188 ) ;
#174 = ORIENTED_EDGE ( 'NONE', *, *, #270, .T. ) ;
#175 = VERTEX_POINT ( 'NONE', #273 ) ;
#176 = ORIENTED_EDGE ( 'NONE', *, *, #242, .T. ) ;
#177 = COORDINATED_UNIVERSAL_TIME_OFFSET ( 1, 0, .AHEAD. ) ;
#178 =( NAMED_UNIT ( * ) PLANE_ANGLE_UNIT ( ) SI_UNIT ( $, .RADIAN. ) );
#179 = EDGE_LOOP ( 'NONE', ( #174 ) ) ;
#180 = CC_DESIGN_APPROVAL ( #141, ( #8 ) ) ;
#181 = ORIENTED_EDGE ( 'NONE', *, *, #129, .F. ) ;
#182 = EDGE_LOOP ( 'NONE', ( #1 ) ) ;
#183 = DIRECTION ( 'NONE',  ( -3.491481338843133355E-15, 1.224646799147353207E-16, -1.000000000000000000 ) ) ;
#184 = PERSON_AND_ORGANIZATION ( #164, #91 ) ;
#185 = CALENDAR_DATE ( 2021, 1, 12 ) ;
#186 = CYLINDRICAL_SURFACE ( 'NONE', #165, 1.499999999999999112 ) ;
#187 = EDGE_CURVE ( 'NONE', #62, #62, #72, .T. ) ;
#188 = DIRECTION ( 'NONE',  ( 0.0000000000000000000, 1.000000000000000000, 0.0000000000000000000 ) ) ;
#189 = PERSON_AND_ORGANIZATION ( #164, #91 ) ;
#190 = FACE_OUTER_BOUND ( 'NONE', #249, .T. ) ;
#191 = CC_DESIGN_SECURITY_CLASSIFICATION ( #265, ( #8 ) ) ;
#192 = DIRECTION ( 'NONE',  ( -3.491481338843133355E-15, 1.224646799147353207E-16, -1.000000000000000000 ) ) ;
#193 = EDGE_CURVE ( 'NONE', #82, #82, #107, .T. ) ;
#194 = PERSON_AND_ORGANIZATION_ROLE ( 'design_owner' ) ;
#195 = FACE_BOUND ( 'NONE', #222, .T. ) ;
#196 = DIRECTION ( 'NONE',  ( -3.491481338843133355E-15, 1.224646799147353207E-16, -1.000000000000000000 ) ) ;
#197 = CARTESIAN_POINT ( 'NONE',  ( 2.793185071074506684E-14, 7.573786902442366414E-33, 8.000000000000000000 ) ) ;
#198 = ORIENTED_EDGE ( 'NONE', *, *, #20, .T. ) ;
#199 = FACE_OUTER_BOUND ( 'NONE', #256, .T. ) ;
#200 = ADVANCED_FACE ( 'NONE', ( #143, #195 ), #140, .T. ) ;
#201 = CARTESIAN_POINT ( 'NONE',  ( 8.728703347107833388E-16, 1.009999999999998899, 0.2500000000000000000 ) ) ;
#202 = CARTESIAN_POINT ( 'NONE',  ( 0.0000000000000000000, 0.0000000000000000000, 0.0000000000000000000 ) ) ;
#203 = DESIGN_CONTEXT ( 'detailed design', #151, 'design' ) ;
#204 = CARTESIAN_POINT ( 'NONE',  ( 7.613034594122895434E-14, -2.670293076972264762E-15, 21.80459769160730232 ) ) ;
#205 = CALENDAR_DATE ( 2021, 1, 12 ) ;
#206 = PLANE ( 'NONE',  #36 ) ;
#207 = SHAPE_DEFINITION_REPRESENTATION ( #160, #97 ) ;
#208 = AXIS2_PLACEMENT_3D ( 'NONE', #42, #210, #159 ) ;
#209 = CARTESIAN_POINT ( 'NONE',  ( 6.405924284287273902E-14, -2.246895775456748746E-15, 18.34729635533384240 ) ) ;
#210 = DIRECTION ( 'NONE',  ( 3.491481338843133355E-15, -1.224646799147353207E-16, 1.000000000000000000 ) ) ;
#211 = APPROVAL_DATE_TIME ( #214, #254 ) ;
#212 = COORDINATED_UNIVERSAL_TIME_OFFSET ( 1, 0, .AHEAD. ) ;
#213 = APPROVAL_STATUS ( 'not_yet_approved' ) ;
#214 = DATE_AND_TIME ( #2, #52 ) ;
#215 = CIRCLE ( 'NONE', #217, 1.499999999999996669 ) ;
#216 = CC_DESIGN_PERSON_AND_ORGANIZATION_ASSIGNMENT ( #286, #194, ( #47 ) ) ;
#217 = AXIS2_PLACEMENT_3D ( 'NONE', #3, #44, #134 ) ;
#218 = DIRECTION ( 'NONE',  ( -4.275831445896958607E-31, -1.000000000000000000, -1.224646799147353207E-16 ) ) ;
#219 = DIRECTION ( 'NONE',  ( 3.813722662152946437E-31, 1.000000000000000000, 1.073467497510401599E-16 ) ) ;
#220 = CARTESIAN_POINT ( 'NONE',  ( 1.735266225405037467E-13, 1.499999999999995559, 49.70000000000000284 ) ) ;
#221 = CARTESIAN_POINT ( 'NONE',  ( 0.0000000000000000000, 0.0000000000000000000, 0.0000000000000000000 ) ) ;
#222 = EDGE_LOOP ( 'NONE', ( #87 ) ) ;
#223 = FACE_OUTER_BOUND ( 'NONE', #248, .T. ) ;
#224 = MECHANICAL_CONTEXT ( 'NONE', #267, 'mechanical' ) ;
#225 = ORIENTED_EDGE ( 'NONE', *, *, #146, .F. ) ;
#226 = CARTESIAN_POINT ( 'NONE',  ( 1.745740669421566678E-13, -6.123233995736766085E-15, 50.00000000000000000 ) ) ;
#227 = CARTESIAN_POINT ( 'NONE',  ( 6.284666409917640040E-14, 0.8599999999999978773, 18.00000000000000000 ) ) ;
#228 = PRODUCT_DEFINITION ( 'UNKNOWN', '', #8, #203 ) ;
#229 = FACE_OUTER_BOUND ( 'NONE', #69, .T. ) ;
#230 = DIRECTION ( 'NONE',  ( 0.0000000000000000000, -1.000000000000000000, 0.0000000000000000000 ) ) ;
#231 = CARTESIAN_POINT ( 'NONE',  ( 2.793185071074506684E-14, -9.797174393178825657E-16, 8.000000000000000000 ) ) ;
#232 = CONICAL_SURFACE ( 'NONE', #169, 1.499999999999996669, 0.1745329251994260367 ) ;
#233 = FACE_BOUND ( 'NONE', #130, .T. ) ;
#234 = DATE_AND_TIME ( #185, #252 ) ;
#235 = APPROVAL_PERSON_ORGANIZATION ( #35, #141, #139 ) ;
#236 = FACE_OUTER_BOUND ( 'NONE', #272, .T. ) ;
#237 = ADVANCED_FACE ( 'NONE', ( #199 ), #29, .F. ) ;
#238 = AXIS2_PLACEMENT_3D ( 'NONE', #231, #19, #135 ) ;
#239 = AXIS2_PLACEMENT_3D ( 'NONE', #197, #31, #218 ) ;
#240 = PRODUCT_RELATED_PRODUCT_CATEGORY ( 'detail', '', ( #47 ) ) ;
#241 = FACE_OUTER_BOUND ( 'NONE', #86, .T. ) ;
#242 = EDGE_CURVE ( 'NONE', #175, #175, #21, .T. ) ;
#243 = CARTESIAN_POINT ( 'NONE',  ( -5.594162477664574652E-31, 1.962168062010068116E-32, -1.602231813594095717E-16 ) ) ;
#244 = FACE_OUTER_BOUND ( 'NONE', #114, .T. ) ;
#245 = VERTEX_POINT ( 'NONE', #250 ) ;
#246 = CARTESIAN_POINT ( 'NONE',  ( 2.883896417162832445E-14, -1.011534696479630343E-15, 8.259807621135337286 ) ) ;
#247 = PERSON_AND_ORGANIZATION ( #164, #91 ) ;
#248 = EDGE_LOOP ( 'NONE', ( #83 ) ) ;
#249 = EDGE_LOOP ( 'NONE', ( #276 ) ) ;
#250 = CARTESIAN_POINT ( 'NONE',  ( 2.793185071074506684E-14, 1.009999999999998899, 8.000000000000000000 ) ) ;
#251 = ORIENTED_EDGE ( 'NONE', *, *, #146, .T. ) ;
#252 = LOCAL_TIME ( 15, 3, 46.00000000000000000, #177 ) ;
#253 = MANIFOLD_SOLID_BREP ( 'Corps-Déplacer/Copier1[2]', #161 ) ;
#254 = APPROVAL ( #302, 'UNSPECIFIED' ) ;
#255 = CARTESIAN_POINT ( 'NONE',  ( 0.0000000000000000000, 0.0000000000000000000, 0.0000000000000000000 ) ) ;
#256 = EDGE_LOOP ( 'NONE', ( #176 ) ) ;
#257 = DATE_AND_TIME ( #279, #80 ) ;
#258 = CARTESIAN_POINT ( 'NONE',  ( 1.735266225405037467E-13, -6.086494591762345225E-15, 49.70000000000000284 ) ) ;
#259 = PERSON_AND_ORGANIZATION_ROLE ( 'design_supplier' ) ;
#260 = CC_DESIGN_DATE_AND_TIME_ASSIGNMENT ( #234, #33, ( #228 ) ) ;
#261 = AXIS2_PLACEMENT_3D ( 'NONE', #58, #77, #219 ) ;
#262 = ADVANCED_FACE ( 'NONE', ( #268 ), #27, .T. ) ;
#263 = DATE_TIME_ROLE ( 'classification_date' ) ;
#264 = DATE_AND_TIME ( #95, #71 ) ;
#265 = SECURITY_CLASSIFICATION ( '', '', #14 ) ;
#266 = CARTESIAN_POINT ( 'NONE',  ( -2.797081238832287326E-31, 9.810840310050340581E-33, -8.011159067970478585E-17 ) ) ;
#267 = APPLICATION_CONTEXT ( 'configuration controlled 3d designs of mechanical parts and assemblies' ) ;
#268 = FACE_OUTER_BOUND ( 'NONE', #65, .T. ) ;
#269 = APPROVAL_STATUS ( 'not_yet_approved' ) ;
#270 = EDGE_CURVE ( 'NONE', #153, #153, #280, .T. ) ;
#271 = CARTESIAN_POINT ( 'NONE',  ( 6.405924284287273902E-14, 0.8903844939755785060, 18.34729635533384240 ) ) ;
#272 = EDGE_LOOP ( 'NONE', ( #181 ) ) ;
#273 = CARTESIAN_POINT ( 'NONE',  ( -1.892735826383160481E-31, 0.8656624327025946863, -5.421010862427520937E-17 ) ) ;
#274 = ORIENTED_EDGE ( 'NONE', *, *, #117, .F. ) ;
#275 = VERTEX_POINT ( 'NONE', #201 ) ;
#276 = ORIENTED_EDGE ( 'NONE', *, *, #193, .T. ) ;
#277 = ORIENTED_EDGE ( 'NONE', *, *, #117, .T. ) ;
#278 = EDGE_LOOP ( 'NONE', ( #274 ) ) ;
#279 = CALENDAR_DATE ( 2021, 1, 12 ) ;
#280 = CIRCLE ( 'NONE', #50, 1.010000000000000009 ) ;
#281 = DIRECTION ( 'NONE',  ( 0.0000000000000000000, 1.000000000000000000, 0.0000000000000000000 ) ) ;
#282 = EDGE_LOOP ( 'NONE', ( #277 ) ) ;
#283 = PERSON_AND_ORGANIZATION ( #164, #91 ) ;
#284 = LOCAL_TIME ( 15, 3, 46.00000000000000000, #67 ) ;
#285 = AXIS2_PLACEMENT_3D ( 'NONE', #49, #287, #166 ) ;
#286 = PERSON_AND_ORGANIZATION ( #164, #91 ) ;
#287 = DIRECTION ( 'NONE',  ( -3.491481338843133355E-15, 1.224646799147353207E-16, -1.000000000000000000 ) ) ;
#288 = PERSON_AND_ORGANIZATION_ROLE ( 'classification_officer' ) ;
#289 = AXIS2_PLACEMENT_3D ( 'NONE', #266, #291, #172 ) ;
#290 = ADVANCED_FACE ( 'NONE', ( #241, #223 ), #5, .F. ) ;
#291 = DIRECTION ( 'NONE',  ( 3.491481338843133355E-15, -1.224646799147353207E-16, 1.000000000000000000 ) ) ;
#292 = DIRECTION ( 'NONE',  ( -3.491481338843133355E-15, 1.224646799147353207E-16, -1.000000000000000000 ) ) ;
#293 = ADVANCED_FACE ( 'NONE', ( #244, #28 ), #26, .T. ) ;
#294 = DIRECTION ( 'NONE',  ( -3.491481338843133355E-15, 1.224646799147353207E-16, -1.000000000000000000 ) ) ;
#295 = AXIS2_PLACEMENT_3D ( 'NONE', #9, #192, #101 ) ;
#296 = CC_DESIGN_APPROVAL ( #24, ( #228 ) ) ;
#297 = DIRECTION ( 'NONE',  ( 1.000000000000000000, 0.0000000000000000000, 0.0000000000000000000 ) ) ;
#298 = CARTESIAN_POINT ( 'NONE',  ( 2.793185071074506684E-14, 1.009999999999998899, 8.000000000000000000 ) ) ;
#299 = ORIENTED_EDGE ( 'NONE', *, *, #111, .T. ) ;
#300 = ADVANCED_FACE ( 'NONE', ( #53, #167 ), #78, .T. ) ;
#301 = DIRECTION ( 'NONE',  ( -3.491481338843133355E-15, 1.224646799147353207E-16, -1.000000000000000000 ) ) ;
#302 = APPROVAL_STATUS ( 'not_yet_approved' ) ;
#303 = DIRECTION ( 'NONE',  ( 4.275831445896958607E-31, 1.000000000000000000, 1.224646799147353207E-16 ) ) ;
ENDSEC;
END-ISO-10303-21;
