ISO-10303-21;
HEADER;
FILE_DESCRIPTION (( 'STEP AP203' ),
    '1' );
FILE_NAME ('200792.step',
    '2021-12-01T14:03:46',
    ( '' ),
    ( '' ),
    'SwSTEP 2.0',
    'SolidWorks 2019',
    '' );
FILE_SCHEMA (( 'CONFIG_CONTROL_DESIGN' ));
ENDSEC;

DATA;
#1 = DIRECTION ( 'NONE',  ( -3.491481338843133355E-15, 1.224646799147353207E-16, -1.000000000000000000 ) ) ;
#2 = AXIS2_PLACEMENT_3D ( 'NONE', #284, #173, #192 ) ;
#3 = CARTESIAN_POINT ( 'NONE',  ( 2.883896417162832445E-14, -1.011534696479630343E-15, 8.259807621135337286 ) ) ;
#4 = FACE_OUTER_BOUND ( 'NONE', #142, .T. ) ;
#5 = DIRECTION ( 'NONE',  ( -3.491481338843133355E-15, 1.224646799147353207E-16, -1.000000000000000000 ) ) ;
#6 = LOCAL_TIME ( 15, 3, 46.00000000000000000, #226 ) ;
#7 = VERTEX_POINT ( 'NONE', #169 ) ;
#8 = ADVANCED_BREP_SHAPE_REPRESENTATION ( '200792', ( #38, #139, #86 ), #25 ) ;
#9 = DIRECTION ( 'NONE',  ( 0.0000000000000000000, 0.0000000000000000000, 1.000000000000000000 ) ) ;
#10 = AXIS2_PLACEMENT_3D ( 'NONE', #69, #119, #45 ) ;
#11 = COORDINATED_UNIVERSAL_TIME_OFFSET ( 1, 0, .AHEAD. ) ;
#12 = CALENDAR_DATE ( 2021, 1, 12 ) ;
#13 = DIRECTION ( 'NONE',  ( -3.832696406740772453E-31, -1.000000000000000000, -1.078808131826373862E-16 ) ) ;
#14 = PERSON_AND_ORGANIZATION_ROLE ( 'creator' ) ;
#15 = AXIS2_PLACEMENT_3D ( 'NONE', #168, #167, #256 ) ;
#16 = EDGE_CURVE ( 'NONE', #75, #75, #78, .T. ) ;
#17 = APPROVAL_STATUS ( 'not_yet_approved' ) ;
#18 = DIRECTION ( 'NONE',  ( -4.275831445896958607E-31, -1.000000000000000000, -1.224646799147353207E-16 ) ) ;
#19 = ORIENTED_EDGE ( 'NONE', *, *, #299, .T. ) ;
#20 = PLANE ( 'NONE',  #183 ) ;
#21 = EDGE_LOOP ( 'NONE', ( #230 ) ) ;
#22 = FACE_BOUND ( 'NONE', #271, .T. ) ;
#23 = CARTESIAN_POINT ( 'NONE',  ( 8.728703347107829444E-16, -3.061616997868381785E-17, 0.2499999999999998890 ) ) ;
#24 = DIRECTION ( 'NONE',  ( -3.491481338843133355E-15, 1.224646799147353207E-16, -1.000000000000000000 ) ) ;
#25 =( GEOMETRIC_REPRESENTATION_CONTEXT ( 3 ) GLOBAL_UNCERTAINTY_ASSIGNED_CONTEXT ( ( #208 ) ) GLOBAL_UNIT_ASSIGNED_CONTEXT ( ( #195, #76, #243 ) ) REPRESENTATION_CONTEXT ( 'NONE', 'WORKASPACE' ) );
#26 = CC_DESIGN_PERSON_AND_ORGANIZATION_ASSIGNMENT ( #200, #201, ( #245 ) ) ;
#27 = ORIENTED_EDGE ( 'NONE', *, *, #246, .F. ) ;
#28 = CARTESIAN_POINT ( 'NONE',  ( 1.735266225405037467E-13, -6.086494591762345225E-15, 49.70000000000000284 ) ) ;
#29 = VERTEX_POINT ( 'NONE', #151 ) ;
#30 = CC_DESIGN_DATE_AND_TIME_ASSIGNMENT ( #202, #106, ( #245 ) ) ;
#31 = MECHANICAL_CONTEXT ( 'NONE', #176, 'mechanical' ) ;
#32 = ADVANCED_FACE ( 'NONE', ( #95, #213 ), #51, .T. ) ;
#33 = DIRECTION ( 'NONE',  ( -3.491481338843133355E-15, 1.224646799147353207E-16, -1.000000000000000000 ) ) ;
#34 = LOCAL_TIME ( 15, 3, 46.00000000000000000, #11 ) ;
#35 = CARTESIAN_POINT ( 'NONE',  ( 2.793185071074506684E-14, -9.797174393178825657E-16, 8.000000000000000000 ) ) ;
#36 = DIRECTION ( 'NONE',  ( 3.491481338843133355E-15, -1.224646799147353207E-16, 1.000000000000000000 ) ) ;
#37 = CLOSED_SHELL ( 'NONE', ( #150, #32, #268, #157, #293, #141, #175, #61 ) ) ;
#38 = MANIFOLD_SOLID_BREP ( 'Corps-Déplacer/Copier1[1]', #37 ) ;
#39 = ORIENTED_EDGE ( 'NONE', *, *, #296, .F. ) ;
#40 = DIRECTION ( 'NONE',  ( 0.0000000000000000000, 1.000000000000000000, 0.0000000000000000000 ) ) ;
#41 = CARTESIAN_POINT ( 'NONE',  ( 6.284666409917640040E-14, -2.168404344971008868E-15, 18.00000000000000000 ) ) ;
#42 = ORIENTED_EDGE ( 'NONE', *, *, #116, .T. ) ;
#43 = EDGE_LOOP ( 'NONE', ( #158 ) ) ;
#44 = DIRECTION ( 'NONE',  ( -3.491481338843133355E-15, 1.224646799147353207E-16, -1.000000000000000000 ) ) ;
#45 = DIRECTION ( 'NONE',  ( 4.275831445896958607E-31, 1.000000000000000000, 1.224646799147353207E-16 ) ) ;
#46 = AXIS2_PLACEMENT_3D ( 'NONE', #28, #5, #53 ) ;
#47 = PERSON_AND_ORGANIZATION ( #128, #147 ) ;
#48 = FACE_BOUND ( 'NONE', #64, .T. ) ;
#49 = AXIS2_PLACEMENT_3D ( 'NONE', #72, #44, #96 ) ;
#50 = PLANE ( 'NONE',  #2 ) ;
#51 = CONICAL_SURFACE ( 'NONE', #261, 0.8549999999999987610, 0.5235987755982934866 ) ;
#52 = CARTESIAN_POINT ( 'NONE',  ( 0.0000000000000000000, 0.0000000000000000000, 0.0000000000000000000 ) ) ;
#53 = DIRECTION ( 'NONE',  ( 0.0000000000000000000, 1.000000000000000000, 0.0000000000000000000 ) ) ;
#54 = COORDINATED_UNIVERSAL_TIME_OFFSET ( 1, 0, .AHEAD. ) ;
#55 = CC_DESIGN_PERSON_AND_ORGANIZATION_ASSIGNMENT ( #152, #83, ( #188 ) ) ;
#56 = PRODUCT_DEFINITION_SHAPE ( 'NONE', 'NONE',  #245 ) ;
#57 = APPROVAL_ROLE ( '' ) ;
#58 = DIRECTION ( 'NONE',  ( -3.491481338843133355E-15, 1.224646799147353207E-16, -1.000000000000000000 ) ) ;
#59 = APPROVAL_ROLE ( '' ) ;
#60 = APPROVAL_PERSON_ORGANIZATION ( #134, #103, #57 ) ;
#61 = ADVANCED_FACE ( 'NONE', ( #238 ), #50, .F. ) ;
#62 = ORIENTED_EDGE ( 'NONE', *, *, #116, .F. ) ;
#63 = DIRECTION ( 'NONE',  ( -3.491481338843133355E-15, 1.224646799147353207E-16, -1.000000000000000000 ) ) ;
#64 = EDGE_LOOP ( 'NONE', ( #90 ) ) ;
#65 = CARTESIAN_POINT ( 'NONE',  ( 2.793185071074506684E-14, 7.536292907875816963E-33, 8.000000000000000000 ) ) ;
#66 = CONICAL_SURFACE ( 'NONE', #143, 1.200000000000001732, 0.7853981633974453924 ) ;
#67 = LOCAL_TIME ( 15, 3, 46.00000000000000000, #288 ) ;
#68 = ORIENTED_EDGE ( 'NONE', *, *, #197, .T. ) ;
#69 = CARTESIAN_POINT ( 'NONE',  ( -3.680047494051928801E-31, 1.290786903015268841E-32, -1.054007493355606748E-16 ) ) ;
#70 = ORIENTED_EDGE ( 'NONE', *, *, #85, .F. ) ;
#71 = DIRECTION ( 'NONE',  ( 4.275831445896959482E-31, 1.000000000000000000, 1.224646799147353207E-16 ) ) ;
#72 = CARTESIAN_POINT ( 'NONE',  ( 6.405924284287273902E-14, -2.246895775456748746E-15, 18.34729635533384240 ) ) ;
#73 = APPROVAL_PERSON_ORGANIZATION ( #269, #149, #59 ) ;
#74 = VERTEX_POINT ( 'NONE', #196 ) ;
#75 = VERTEX_POINT ( 'NONE', #125 ) ;
#76 =( NAMED_UNIT ( * ) PLANE_ANGLE_UNIT ( ) SI_UNIT ( $, .RADIAN. ) );
#77 = AXIS2_PLACEMENT_3D ( 'NONE', #91, #232, #231 ) ;
#78 = CIRCLE ( 'NONE', #132, 1.004999999999998783 ) ;
#79 = PERSON_AND_ORGANIZATION_ROLE ( 'design_owner' ) ;
#80 = DATE_AND_TIME ( #292, #67 ) ;
#81 = CIRCLE ( 'NONE', #270, 1.200000000000001732 ) ;
#82 = DATE_AND_TIME ( #12, #34 ) ;
#83 = PERSON_AND_ORGANIZATION_ROLE ( 'design_supplier' ) ;
#84 = CALENDAR_DATE ( 2021, 1, 12 ) ;
#85 = EDGE_CURVE ( 'NONE', #281, #281, #189, .T. ) ;
#86 = AXIS2_PLACEMENT_3D ( 'NONE', #236, #9, #104 ) ;
#87 = ORIENTED_EDGE ( 'NONE', *, *, #299, .F. ) ;
#88 = FACE_OUTER_BOUND ( 'NONE', #163, .T. ) ;
#89 = DESIGN_CONTEXT ( 'detailed design', #207, 'design' ) ;
#90 = ORIENTED_EDGE ( 'NONE', *, *, #204, .F. ) ;
#91 = CARTESIAN_POINT ( 'NONE',  ( 2.793185071074506684E-14, 7.536292907875816963E-33, 8.000000000000000000 ) ) ;
#92 = EDGE_LOOP ( 'NONE', ( #253 ) ) ;
#93 = LOCAL_TIME ( 15, 3, 46.00000000000000000, #264 ) ;
#94 = CLOSED_SHELL ( 'NONE', ( #214, #98, #262, #165 ) ) ;
#95 = FACE_OUTER_BOUND ( 'NONE', #160, .T. ) ;
#96 = DIRECTION ( 'NONE',  ( 0.0000000000000000000, 1.000000000000000000, 0.0000000000000000000 ) ) ;
#97 = DIRECTION ( 'NONE',  ( 3.491481338843133355E-15, -1.224646799147353207E-16, 1.000000000000000000 ) ) ;
#98 = ADVANCED_FACE ( 'NONE', ( #105, #287 ), #218, .T. ) ;
#99 = VERTEX_POINT ( 'NONE', #242 ) ;
#100 = DIRECTION ( 'NONE',  ( -3.491481338843133355E-15, 1.224646799147353207E-16, -1.000000000000000000 ) ) ;
#101 = CYLINDRICAL_SURFACE ( 'NONE', #220, 0.8549999999999993161 ) ;
#102 = DIRECTION ( 'NONE',  ( 4.275831445896958607E-31, 1.000000000000000000, 1.224646799147353207E-16 ) ) ;
#103 = APPROVAL ( #17, 'UNSPECIFIED' ) ;
#104 = DIRECTION ( 'NONE',  ( 1.000000000000000000, 0.0000000000000000000, 0.0000000000000000000 ) ) ;
#105 = FACE_BOUND ( 'NONE', #187, .T. ) ;
#106 = DATE_TIME_ROLE ( 'creation_date' ) ;
#107 = CARTESIAN_POINT ( 'NONE',  ( 6.284666409917640040E-14, -2.204364238465235428E-15, 18.00000000000000000 ) ) ;
#108 = APPROVAL_STATUS ( 'not_yet_approved' ) ;
#109 = EDGE_CURVE ( 'NONE', #99, #99, #211, .T. ) ;
#110 = DATE_AND_TIME ( #111, #244 ) ;
#111 = CALENDAR_DATE ( 2021, 1, 12 ) ;
#112 = EDGE_LOOP ( 'NONE', ( #70 ) ) ;
#113 = CC_DESIGN_APPROVAL ( #155, ( #245 ) ) ;
#114 = PLANE ( 'NONE',  #77 ) ;
#115 = DIRECTION ( 'NONE',  ( -3.491481338843133355E-15, 1.224646799147353207E-16, -1.000000000000000000 ) ) ;
#116 = EDGE_CURVE ( 'NONE', #74, #74, #120, .T. ) ;
#117 = ORIENTED_EDGE ( 'NONE', *, *, #204, .T. ) ;
#118 = DIRECTION ( 'NONE',  ( -3.491481338843133355E-15, 1.224646799147353207E-16, -1.000000000000000000 ) ) ;
#119 = DIRECTION ( 'NONE',  ( -3.491481338843133355E-15, 1.224646799147353207E-16, -1.000000000000000000 ) ) ;
#120 = CIRCLE ( 'NONE', #265, 1.004999999999999893 ) ;
#121 = EDGE_LOOP ( 'NONE', ( #39 ) ) ;
#122 = PRODUCT_RELATED_PRODUCT_CATEGORY ( 'detail', '', ( #209 ) ) ;
#123 = FACE_OUTER_BOUND ( 'NONE', #92, .T. ) ;
#124 = CARTESIAN_POINT ( 'NONE',  ( 7.622935181443155130E-14, -2.673765735535994340E-15, 21.83295410070539688 ) ) ;
#125 = CARTESIAN_POINT ( 'NONE',  ( 8.728703347107833388E-16, 1.004999999999998783, 0.2500000000000000000 ) ) ;
#126 = FACE_OUTER_BOUND ( 'NONE', #140, .T. ) ;
#127 = AXIS2_PLACEMENT_3D ( 'NONE', #222, #36, #13 ) ;
#128 = PERSON ( 'UNSPECIFIED', 'UNSPECIFIED', 'UNSPECIFIED', ('UNSPECIFIED'), ('UNSPECIFIED'), ('UNSPECIFIED') ) ;
#129 = DIRECTION ( 'NONE',  ( 0.0000000000000000000, 1.000000000000000000, 0.0000000000000000000 ) ) ;
#130 = AXIS2_PLACEMENT_3D ( 'NONE', #272, #115, #219 ) ;
#131 = CARTESIAN_POINT ( 'NONE',  ( 2.793185071074506684E-14, -9.797174393178825657E-16, 8.000000000000000000 ) ) ;
#132 = AXIS2_PLACEMENT_3D ( 'NONE', #23, #1, #166 ) ;
#133 = CC_DESIGN_PERSON_AND_ORGANIZATION_ASSIGNMENT ( #177, #14, ( #188 ) ) ;
#134 = PERSON_AND_ORGANIZATION ( #128, #147 ) ;
#135 = EDGE_LOOP ( 'NONE', ( #297 ) ) ;
#136 = ORIENTED_EDGE ( 'NONE', *, *, #246, .T. ) ;
#137 = DIRECTION ( 'NONE',  ( 0.0000000000000000000, 1.000000000000000000, 0.0000000000000000000 ) ) ;
#138 = FACE_OUTER_BOUND ( 'NONE', #112, .T. ) ;
#139 = MANIFOLD_SOLID_BREP ( 'Corps-Déplacer/Copier1[2]', #94 ) ;
#140 = EDGE_LOOP ( 'NONE', ( #19 ) ) ;
#141 = ADVANCED_FACE ( 'NONE', ( #4, #215 ), #162, .T. ) ;
#142 = EDGE_LOOP ( 'NONE', ( #87 ) ) ;
#143 = AXIS2_PLACEMENT_3D ( 'NONE', #278, #118, #210 ) ;
#144 = FACE_OUTER_BOUND ( 'NONE', #21, .T. ) ;
#145 = CC_DESIGN_PERSON_AND_ORGANIZATION_ASSIGNMENT ( #203, #263, ( #224 ) ) ;
#146 = DIRECTION ( 'NONE',  ( -3.491481338843133355E-15, 1.224646799147353207E-16, -1.000000000000000000 ) ) ;
#147 = ORGANIZATION ( 'UNSPECIFIED', 'UNSPECIFIED', '' ) ;
#148 = DIRECTION ( 'NONE',  ( 0.0000000000000000000, -1.000000000000000000, 0.0000000000000000000 ) ) ;
#149 = APPROVAL ( #181, 'UNSPECIFIED' ) ;
#150 = ADVANCED_FACE ( 'NONE', ( #249 ), #20, .F. ) ;
#151 = CARTESIAN_POINT ( 'NONE',  ( 6.405924284287273902E-14, 0.8853844939755782795, 18.34729635533384240 ) ) ;
#152 = PERSON_AND_ORGANIZATION ( #128, #147 ) ;
#153 = CALENDAR_DATE ( 2021, 1, 12 ) ;
#154 = APPROVAL_DATE_TIME ( #110, #149 ) ;
#155 = APPROVAL ( #108, 'UNSPECIFIED' ) ;
#156 = CIRCLE ( 'NONE', #280, 0.8549999999999987610 ) ;
#157 = ADVANCED_FACE ( 'NONE', ( #279, #252 ), #239, .F. ) ;
#158 = ORIENTED_EDGE ( 'NONE', *, *, #16, .T. ) ;
#159 = DIRECTION ( 'NONE',  ( 0.0000000000000000000, 1.000000000000000000, 0.0000000000000000000 ) ) ;
#160 = EDGE_LOOP ( 'NONE', ( #62 ) ) ;
#161 = AXIS2_PLACEMENT_3D ( 'NONE', #107, #291, #180 ) ;
#162 = CYLINDRICAL_SURFACE ( 'NONE', #178, 1.499999999999999112 ) ;
#163 = EDGE_LOOP ( 'NONE', ( #185 ) ) ;
#164 = DIRECTION ( 'NONE',  ( 4.275831445896958607E-31, 1.000000000000000000, 1.224646799147353454E-16 ) ) ;
#165 = ADVANCED_FACE ( 'NONE', ( #138 ), #114, .T. ) ;
#166 = DIRECTION ( 'NONE',  ( 3.832696406740772453E-31, 1.000000000000000000, 1.078808131826373862E-16 ) ) ;
#167 = DIRECTION ( 'NONE',  ( 3.491481338843133355E-15, -1.224646799147353207E-16, 1.000000000000000000 ) ) ;
#168 = CARTESIAN_POINT ( 'NONE',  ( -1.840023747025964400E-31, 6.453934515076344205E-33, -5.270037466778033738E-17 ) ) ;
#169 = CARTESIAN_POINT ( 'NONE',  ( 1.735266225405037467E-13, 1.499999999999995559, 49.70000000000000284 ) ) ;
#170 = CARTESIAN_POINT ( 'NONE',  ( 0.0000000000000000000, 0.8606624327025945709, 0.0000000000000000000 ) ) ;
#171 = APPLICATION_PROTOCOL_DEFINITION ( 'international standard', 'config_control_design', 1994, #176 ) ;
#172 = APPROVAL_PERSON_ORGANIZATION ( #223, #155, #182 ) ;
#173 = DIRECTION ( 'NONE',  ( -3.491481338843133355E-15, 1.224646799147353207E-16, -1.000000000000000000 ) ) ;
#174 = VERTEX_POINT ( 'NONE', #240 ) ;
#175 = ADVANCED_FACE ( 'NONE', ( #301, #22 ), #66, .T. ) ;
#176 = APPLICATION_CONTEXT ( 'configuration controlled 3d designs of mechanical parts and assemblies' ) ;
#177 = PERSON_AND_ORGANIZATION ( #128, #147 ) ;
#178 = AXIS2_PLACEMENT_3D ( 'NONE', #227, #63, #164 ) ;
#179 = DATE_TIME_ROLE ( 'classification_date' ) ;
#180 = DIRECTION ( 'NONE',  ( 0.0000000000000000000, 1.000000000000000000, 0.0000000000000000000 ) ) ;
#181 = APPROVAL_STATUS ( 'not_yet_approved' ) ;
#182 = APPROVAL_ROLE ( '' ) ;
#183 = AXIS2_PLACEMENT_3D ( 'NONE', #65, #97, #18 ) ;
#184 = EDGE_LOOP ( 'NONE', ( #68 ) ) ;
#185 = ORIENTED_EDGE ( 'NONE', *, *, #85, .T. ) ;
#186 = CYLINDRICAL_SURFACE ( 'NONE', #130, 1.004999999999999449 ) ;
#187 = EDGE_LOOP ( 'NONE', ( #302 ) ) ;
#188 = PRODUCT_DEFINITION_FORMATION_WITH_SPECIFIED_SOURCE ( 'ANY', '', #209, .NOT_KNOWN. ) ;
#189 = CIRCLE ( 'NONE', #225, 1.004999999999999893 ) ;
#190 = EDGE_CURVE ( 'NONE', #217, #217, #156, .T. ) ;
#191 = FACE_OUTER_BOUND ( 'NONE', #184, .T. ) ;
#192 = DIRECTION ( 'NONE',  ( 4.275831445896958607E-31, 1.000000000000000000, 1.224646799147353207E-16 ) ) ;
#193 = CARTESIAN_POINT ( 'NONE',  ( 2.883896417162832445E-14, 0.8549999999999977618, 8.259807621135337286 ) ) ;
#194 = DIRECTION ( 'NONE',  ( 0.0000000000000000000, 1.000000000000000000, 0.0000000000000000000 ) ) ;
#195 =( LENGTH_UNIT ( ) NAMED_UNIT ( * ) SI_UNIT ( .MILLI., .METRE. ) );
#196 = CARTESIAN_POINT ( 'NONE',  ( 2.793185071074506684E-14, 1.004999999999998783, 8.000000000000000000 ) ) ;
#197 = EDGE_CURVE ( 'NONE', #283, #283, #290, .T. ) ;
#198 = CONICAL_SURFACE ( 'NONE', #274, 1.499999999999996669, 0.1745329251994257591 ) ;
#199 = CARTESIAN_POINT ( 'NONE',  ( 2.793185071074506684E-14, 1.004999999999998783, 8.000000000000000000 ) ) ;
#200 = PERSON_AND_ORGANIZATION ( #128, #147 ) ;
#201 = PERSON_AND_ORGANIZATION_ROLE ( 'creator' ) ;
#202 = DATE_AND_TIME ( #153, #6 ) ;
#203 = PERSON_AND_ORGANIZATION ( #128, #147 ) ;
#204 = EDGE_CURVE ( 'NONE', #29, #29, #285, .T. ) ;
#205 = CC_DESIGN_APPROVAL ( #103, ( #188 ) ) ;
#206 = CARTESIAN_POINT ( 'NONE',  ( 1.745740669421566678E-13, -6.123233995736766085E-15, 50.00000000000000000 ) ) ;
#207 = APPLICATION_CONTEXT ( 'configuration controlled 3d designs of mechanical parts and assemblies' ) ;
#208 = UNCERTAINTY_MEASURE_WITH_UNIT (LENGTH_MEASURE( 1.000000000000000082E-05 ), #195, 'distance_accuracy_value', 'NONE');
#209 = PRODUCT ( '200792', '200792', '', ( #31 ) ) ;
#210 = DIRECTION ( 'NONE',  ( 0.0000000000000000000, 1.000000000000000000, 0.0000000000000000000 ) ) ;
#211 = CIRCLE ( 'NONE', #161, 0.8549999999999998712 ) ;
#212 = EDGE_LOOP ( 'NONE', ( #248 ) ) ;
#213 = FACE_BOUND ( 'NONE', #135, .T. ) ;
#214 = ADVANCED_FACE ( 'NONE', ( #191 ), #229, .F. ) ;
#215 = FACE_OUTER_BOUND ( 'NONE', #212, .T. ) ;
#216 = DIRECTION ( 'NONE',  ( 0.0000000000000000000, 1.000000000000000000, 0.0000000000000000000 ) ) ;
#217 = VERTEX_POINT ( 'NONE', #193 ) ;
#218 = CONICAL_SURFACE ( 'NONE', #127, 1.004999999999998783, 0.5235987755982920433 ) ;
#219 = DIRECTION ( 'NONE',  ( 4.275831445896958607E-31, 1.000000000000000000, 1.224646799147352961E-16 ) ) ;
#220 = AXIS2_PLACEMENT_3D ( 'NONE', #52, #146, #102 ) ;
#221 = APPLICATION_PROTOCOL_DEFINITION ( 'international standard', 'config_control_design', 1994, #207 ) ;
#222 = CARTESIAN_POINT ( 'NONE',  ( 8.728703347107829444E-16, -3.061616997868381785E-17, 0.2499999999999998890 ) ) ;
#223 = PERSON_AND_ORGANIZATION ( #128, #147 ) ;
#224 = SECURITY_CLASSIFICATION ( '', '', #294 ) ;
#225 = AXIS2_PLACEMENT_3D ( 'NONE', #35, #33, #129 ) ;
#226 = COORDINATED_UNIVERSAL_TIME_OFFSET ( 1, 0, .AHEAD. ) ;
#227 = CARTESIAN_POINT ( 'NONE',  ( 0.0000000000000000000, 0.0000000000000000000, 0.0000000000000000000 ) ) ;
#228 = ORIENTED_EDGE ( 'NONE', *, *, #16, .F. ) ;
#229 = PLANE ( 'NONE',  #15 ) ;
#230 = ORIENTED_EDGE ( 'NONE', *, *, #109, .T. ) ;
#231 = DIRECTION ( 'NONE',  ( -4.275831445896958607E-31, -1.000000000000000000, -1.224646799147353207E-16 ) ) ;
#232 = DIRECTION ( 'NONE',  ( 3.491481338843133355E-15, -1.224646799147353207E-16, 1.000000000000000000 ) ) ;
#233 = CIRCLE ( 'NONE', #247, 1.499999999999996669 ) ;
#234 = EDGE_LOOP ( 'NONE', ( #251 ) ) ;
#235 = DIRECTION ( 'NONE',  ( -3.491481338843133355E-15, 1.224646799147353207E-16, -1.000000000000000000 ) ) ;
#236 = CARTESIAN_POINT ( 'NONE',  ( 0.0000000000000000000, 0.0000000000000000000, 0.0000000000000000000 ) ) ;
#237 = DIRECTION ( 'NONE',  ( -3.491481338843133355E-15, 1.224646799147353207E-16, -1.000000000000000000 ) ) ;
#238 = FACE_OUTER_BOUND ( 'NONE', #273, .T. ) ;
#239 = TOROIDAL_SURFACE ( 'NONE', #250, 2.854999999999999982, 2.000000000000000444 ) ;
#240 = CARTESIAN_POINT ( 'NONE',  ( 1.745740669421566678E-13, 1.199999999999995515, 50.00000000000000000 ) ) ;
#241 = CIRCLE ( 'NONE', #46, 1.500000000000001554 ) ;
#242 = CARTESIAN_POINT ( 'NONE',  ( 6.284666409917640040E-14, 0.8549999999999976508, 18.00000000000000000 ) ) ;
#243 =( NAMED_UNIT ( * ) SI_UNIT ( $, .STERADIAN. ) SOLID_ANGLE_UNIT ( ) );
#244 = LOCAL_TIME ( 15, 3, 46.00000000000000000, #54 ) ;
#245 = PRODUCT_DEFINITION ( 'UNKNOWN', '', #188, #89 ) ;
#246 = EDGE_CURVE ( 'NONE', #174, #174, #81, .T. ) ;
#247 = AXIS2_PLACEMENT_3D ( 'NONE', #124, #237, #216 ) ;
#248 = ORIENTED_EDGE ( 'NONE', *, *, #296, .T. ) ;
#249 = FACE_OUTER_BOUND ( 'NONE', #277, .T. ) ;
#250 = AXIS2_PLACEMENT_3D ( 'NONE', #41, #255, #71 ) ;
#251 = ORIENTED_EDGE ( 'NONE', *, *, #109, .F. ) ;
#252 = FACE_OUTER_BOUND ( 'NONE', #275, .T. ) ;
#253 = ORIENTED_EDGE ( 'NONE', *, *, #190, .F. ) ;
#254 = CC_DESIGN_DATE_AND_TIME_ASSIGNMENT ( #295, #179, ( #224 ) ) ;
#255 = DIRECTION ( 'NONE',  ( -3.491481338843133355E-15, 1.224646799147353207E-16, -1.000000000000000000 ) ) ;
#256 = DIRECTION ( 'NONE',  ( -4.275831445896958607E-31, -1.000000000000000000, -1.224646799147353207E-16 ) ) ;
#257 = VERTEX_POINT ( 'NONE', #258 ) ;
#258 = CARTESIAN_POINT ( 'NONE',  ( 7.622935181443155130E-14, 1.499999999999994005, 21.83295410070539688 ) ) ;
#259 = CC_DESIGN_APPROVAL ( #149, ( #224 ) ) ;
#260 = DIRECTION ( 'NONE',  ( 3.491481338843133355E-15, -1.224646799147353207E-16, 1.000000000000000000 ) ) ;
#261 = AXIS2_PLACEMENT_3D ( 'NONE', #3, #100, #194 ) ;
#262 = ADVANCED_FACE ( 'NONE', ( #298, #88 ), #186, .T. ) ;
#263 = PERSON_AND_ORGANIZATION_ROLE ( 'classification_officer' ) ;
#264 = COORDINATED_UNIVERSAL_TIME_OFFSET ( 1, 0, .AHEAD. ) ;
#265 = AXIS2_PLACEMENT_3D ( 'NONE', #131, #58, #159 ) ;
#266 = SHAPE_DEFINITION_REPRESENTATION ( #56, #8 ) ;
#267 = APPROVAL_DATE_TIME ( #82, #155 ) ;
#268 = ADVANCED_FACE ( 'NONE', ( #123, #144 ), #101, .T. ) ;
#269 = PERSON_AND_ORGANIZATION ( #128, #147 ) ;
#270 = AXIS2_PLACEMENT_3D ( 'NONE', #206, #235, #40 ) ;
#271 = EDGE_LOOP ( 'NONE', ( #136 ) ) ;
#272 = CARTESIAN_POINT ( 'NONE',  ( 0.0000000000000000000, 0.0000000000000000000, 0.0000000000000000000 ) ) ;
#273 = EDGE_LOOP ( 'NONE', ( #27 ) ) ;
#274 = AXIS2_PLACEMENT_3D ( 'NONE', #282, #260, #148 ) ;
#275 = EDGE_LOOP ( 'NONE', ( #117 ) ) ;
#276 = CARTESIAN_POINT ( 'NONE',  ( 2.883896417162832445E-14, -1.011534696479630343E-15, 8.259807621135337286 ) ) ;
#277 = EDGE_LOOP ( 'NONE', ( #42 ) ) ;
#278 = CARTESIAN_POINT ( 'NONE',  ( 1.745740669421566678E-13, -6.123233995736766085E-15, 50.00000000000000000 ) ) ;
#279 = FACE_OUTER_BOUND ( 'NONE', #234, .T. ) ;
#280 = AXIS2_PLACEMENT_3D ( 'NONE', #276, #24, #137 ) ;
#281 = VERTEX_POINT ( 'NONE', #199 ) ;
#282 = CARTESIAN_POINT ( 'NONE',  ( 7.622935181443155130E-14, -2.673765735535994340E-15, 21.83295410070539688 ) ) ;
#283 = VERTEX_POINT ( 'NONE', #170 ) ;
#284 = CARTESIAN_POINT ( 'NONE',  ( 1.745740669421566678E-13, 8.998558695971067645E-33, 50.00000000000000000 ) ) ;
#285 = CIRCLE ( 'NONE', #49, 0.8853844939755804999 ) ;
#286 = CC_DESIGN_PERSON_AND_ORGANIZATION_ASSIGNMENT ( #47, #79, ( #209 ) ) ;
#287 = FACE_OUTER_BOUND ( 'NONE', #43, .T. ) ;
#288 = COORDINATED_UNIVERSAL_TIME_OFFSET ( 1, 0, .AHEAD. ) ;
#289 = APPROVAL_DATE_TIME ( #80, #103 ) ;
#290 = CIRCLE ( 'NONE', #10, 0.8606624327025945709 ) ;
#291 = DIRECTION ( 'NONE',  ( -3.491481338843133355E-15, 1.224646799147353207E-16, -1.000000000000000000 ) ) ;
#292 = CALENDAR_DATE ( 2021, 1, 12 ) ;
#293 = ADVANCED_FACE ( 'NONE', ( #48, #126 ), #198, .T. ) ;
#294 = SECURITY_CLASSIFICATION_LEVEL ( 'unclassified' ) ;
#295 = DATE_AND_TIME ( #84, #93 ) ;
#296 = EDGE_CURVE ( 'NONE', #7, #7, #241, .T. ) ;
#297 = ORIENTED_EDGE ( 'NONE', *, *, #190, .T. ) ;
#298 = FACE_OUTER_BOUND ( 'NONE', #300, .T. ) ;
#299 = EDGE_CURVE ( 'NONE', #257, #257, #233, .T. ) ;
#300 = EDGE_LOOP ( 'NONE', ( #228 ) ) ;
#301 = FACE_OUTER_BOUND ( 'NONE', #121, .T. ) ;
#302 = ORIENTED_EDGE ( 'NONE', *, *, #197, .F. ) ;
#303 = CC_DESIGN_SECURITY_CLASSIFICATION ( #224, ( #188 ) ) ;
ENDSEC;
END-ISO-10303-21;
