ISO-10303-21;
HEADER;
FILE_DESCRIPTION (( 'STEP AP203' ),
    '1' );
FILE_NAME ('200791.step',
    '2021-12-01T14:03:45',
    ( '' ),
    ( '' ),
    'SwSTEP 2.0',
    'SolidWorks 2019',
    '' );
FILE_SCHEMA (( 'CONFIG_CONTROL_DESIGN' ));
ENDSEC;

DATA;
#1 = AXIS2_PLACEMENT_3D ( 'NONE', #105, #154, #30 ) ;
#2 = CARTESIAN_POINT ( 'NONE',  ( 1.745740669421566678E-13, 8.998558695971067645E-33, 50.00000000000000000 ) ) ;
#3 = FACE_OUTER_BOUND ( 'NONE', #7, .T. ) ;
#4 = CARTESIAN_POINT ( 'NONE',  ( -1.892735826383160481E-31, 0.8506624327025947840, -5.421010862427520937E-17 ) ) ;
#5 = DATE_AND_TIME ( #122, #286 ) ;
#6 = CC_DESIGN_DATE_AND_TIME_ASSIGNMENT ( #215, #8, ( #113 ) ) ;
#7 = EDGE_LOOP ( 'NONE', ( #242 ) ) ;
#8 = DATE_TIME_ROLE ( 'creation_date' ) ;
#9 = ORIENTED_EDGE ( 'NONE', *, *, #95, .F. ) ;
#10 = VERTEX_POINT ( 'NONE', #38 ) ;
#11 = CC_DESIGN_PERSON_AND_ORGANIZATION_ASSIGNMENT ( #255, #150, ( #274 ) ) ;
#12 =( NAMED_UNIT ( * ) SI_UNIT ( $, .STERADIAN. ) SOLID_ANGLE_UNIT ( ) );
#13 = CIRCLE ( 'NONE', #126, 1.499999999999996669 ) ;
#14 = APPROVAL_DATE_TIME ( #239, #83 ) ;
#15 = DIRECTION ( 'NONE',  ( 0.0000000000000000000, 1.000000000000000000, 0.0000000000000000000 ) ) ;
#16 = CALENDAR_DATE ( 2021, 1, 12 ) ;
#17 = EDGE_LOOP ( 'NONE', ( #295 ) ) ;
#18 = CLOSED_SHELL ( 'NONE', ( #300, #186, #184, #158, #103, #36, #240, #116 ) ) ;
#19 = APPROVAL_STATUS ( 'not_yet_approved' ) ;
#20 = ORIENTED_EDGE ( 'NONE', *, *, #68, .F. ) ;
#21 = APPROVAL_DATE_TIME ( #65, #192 ) ;
#22 = DIRECTION ( 'NONE',  ( -3.491481338843133355E-15, 1.224646799147353207E-16, -1.000000000000000000 ) ) ;
#23 = DIRECTION ( 'NONE',  ( 4.275831445896958607E-31, 1.000000000000000000, 1.224646799147353207E-16 ) ) ;
#24 = FACE_OUTER_BOUND ( 'NONE', #247, .T. ) ;
#25 = FACE_OUTER_BOUND ( 'NONE', #151, .T. ) ;
#26 = FACE_OUTER_BOUND ( 'NONE', #237, .T. ) ;
#27 = CC_DESIGN_APPROVAL ( #192, ( #214 ) ) ;
#28 = EDGE_CURVE ( 'NONE', #104, #104, #275, .T. ) ;
#29 = DIRECTION ( 'NONE',  ( -3.491481338843133355E-15, 1.224646799147353207E-16, -1.000000000000000000 ) ) ;
#30 = DIRECTION ( 'NONE',  ( 0.0000000000000000000, 1.000000000000000000, 0.0000000000000000000 ) ) ;
#31 = APPROVAL_ROLE ( '' ) ;
#32 = EDGE_CURVE ( 'NONE', #53, #53, #245, .T. ) ;
#33 = APPROVAL_PERSON_ORGANIZATION ( #190, #192, #161 ) ;
#34 = PERSON_AND_ORGANIZATION_ROLE ( 'creator' ) ;
#35 =( NAMED_UNIT ( * ) PLANE_ANGLE_UNIT ( ) SI_UNIT ( $, .RADIAN. ) );
#36 = ADVANCED_FACE ( 'NONE', ( #66, #159 ), #43, .T. ) ;
#37 = EDGE_LOOP ( 'NONE', ( #173 ) ) ;
#38 = CARTESIAN_POINT ( 'NONE',  ( 7.642736356083669471E-14, 1.499999999999994005, 21.88966691890157179 ) ) ;
#39 = AXIS2_PLACEMENT_3D ( 'NONE', #251, #51, #167 ) ;
#40 = EDGE_LOOP ( 'NONE', ( #265 ) ) ;
#41 = MANIFOLD_SOLID_BREP ( 'Corps-Déplacer/Copier1[2]', #208 ) ;
#42 = APPROVAL_ROLE ( '' ) ;
#43 = CYLINDRICAL_SURFACE ( 'NONE', #165, 1.499999999999999112 ) ;
#44 = CONICAL_SURFACE ( 'NONE', #39, 0.8449999999999987521, 0.5235987755982940417 ) ;
#45 = DIRECTION ( 'NONE',  ( -3.491481338843133355E-15, 1.224646799147353207E-16, -1.000000000000000000 ) ) ;
#46 = PLANE ( 'NONE',  #229 ) ;
#47 = CARTESIAN_POINT ( 'NONE',  ( 7.642736356083669471E-14, -2.680711052663451523E-15, 21.88966691890157179 ) ) ;
#48 = DESIGN_CONTEXT ( 'detailed design', #129, 'design' ) ;
#49 = DIRECTION ( 'NONE',  ( 3.491481338843133355E-15, -1.224646799147353207E-16, 1.000000000000000000 ) ) ;
#50 = CARTESIAN_POINT ( 'NONE',  ( 1.735266225405037467E-13, -6.086494591762345225E-15, 49.70000000000000284 ) ) ;
#51 = DIRECTION ( 'NONE',  ( -3.491481338843133355E-15, 1.224646799147353207E-16, -1.000000000000000000 ) ) ;
#52 = VERTEX_POINT ( 'NONE', #54 ) ;
#53 = VERTEX_POINT ( 'NONE', #170 ) ;
#54 = CARTESIAN_POINT ( 'NONE',  ( 1.735266225405037467E-13, 1.499999999999995559, 49.70000000000000284 ) ) ;
#55 = LOCAL_TIME ( 15, 3, 45.00000000000000000, #123 ) ;
#56 = AXIS2_PLACEMENT_3D ( 'NONE', #227, #22, #110 ) ;
#57 = VERTEX_POINT ( 'NONE', #213 ) ;
#58 = EDGE_LOOP ( 'NONE', ( #157 ) ) ;
#59 = CARTESIAN_POINT ( 'NONE',  ( 2.793185071074506684E-14, 0.9949999999999988853, 8.000000000000000000 ) ) ;
#60 = PERSON_AND_ORGANIZATION ( #79, #111 ) ;
#61 = AXIS2_PLACEMENT_3D ( 'NONE', #69, #85, #87 ) ;
#62 = EDGE_CURVE ( 'NONE', #193, #193, #270, .T. ) ;
#63 = APPROVAL_STATUS ( 'not_yet_approved' ) ;
#64 = EDGE_LOOP ( 'NONE', ( #221 ) ) ;
#65 = DATE_AND_TIME ( #133, #78 ) ;
#66 = FACE_OUTER_BOUND ( 'NONE', #108, .T. ) ;
#67 = LOCAL_TIME ( 15, 3, 45.00000000000000000, #200 ) ;
#68 = EDGE_CURVE ( 'NONE', #57, #57, #298, .T. ) ;
#69 = CARTESIAN_POINT ( 'NONE',  ( 2.793185071074506684E-14, -9.797174393178825657E-16, 8.000000000000000000 ) ) ;
#70 = DIRECTION ( 'NONE',  ( 3.491481338843133355E-15, -1.224646799147353207E-16, 1.000000000000000000 ) ) ;
#71 = DIRECTION ( 'NONE',  ( -3.491481338843133355E-15, 1.224646799147353207E-16, -1.000000000000000000 ) ) ;
#72 = CARTESIAN_POINT ( 'NONE',  ( 8.728703347107829444E-16, -3.061616997868381785E-17, 0.2499999999999998890 ) ) ;
#73 = SECURITY_CLASSIFICATION ( '', '', #296 ) ;
#74 = CIRCLE ( 'NONE', #196, 0.8753844939755796029 ) ;
#75 = CARTESIAN_POINT ( 'NONE',  ( 2.793185071074506684E-14, 7.461304918742727641E-33, 8.000000000000000000 ) ) ;
#76 = FACE_OUTER_BOUND ( 'NONE', #64, .T. ) ;
#77 = DIRECTION ( 'NONE',  ( 4.275831445896958607E-31, 1.000000000000000000, 1.224646799147353207E-16 ) ) ;
#78 = LOCAL_TIME ( 15, 3, 45.00000000000000000, #198 ) ;
#79 = PERSON ( 'UNSPECIFIED', 'UNSPECIFIED', 'UNSPECIFIED', ('UNSPECIFIED'), ('UNSPECIFIED'), ('UNSPECIFIED') ) ;
#80 = COORDINATED_UNIVERSAL_TIME_OFFSET ( 1, 0, .AHEAD. ) ;
#81 = CARTESIAN_POINT ( 'NONE',  ( 0.0000000000000000000, 0.0000000000000000000, 0.0000000000000000000 ) ) ;
#82 = AXIS2_PLACEMENT_3D ( 'NONE', #50, #94, #140 ) ;
#83 = APPROVAL ( #19, 'UNSPECIFIED' ) ;
#84 = EDGE_LOOP ( 'NONE', ( #132 ) ) ;
#85 = DIRECTION ( 'NONE',  ( -3.491481338843133355E-15, 1.224646799147353207E-16, -1.000000000000000000 ) ) ;
#86 = APPROVAL ( #235, 'UNSPECIFIED' ) ;
#87 = DIRECTION ( 'NONE',  ( 0.0000000000000000000, 1.000000000000000000, 0.0000000000000000000 ) ) ;
#88 = DIRECTION ( 'NONE',  ( -3.491481338843133355E-15, 1.224646799147353207E-16, -1.000000000000000000 ) ) ;
#89 = CARTESIAN_POINT ( 'NONE',  ( 6.405924284287275164E-14, -2.246895775456749140E-15, 18.34729635533384595 ) ) ;
#90 = FACE_OUTER_BOUND ( 'NONE', #17, .T. ) ;
#91 = CARTESIAN_POINT ( 'NONE',  ( -2.765012502988060255E-31, 9.698358326350701808E-33, -7.919310558034427914E-17 ) ) ;
#92 = AXIS2_PLACEMENT_3D ( 'NONE', #271, #202, #15 ) ;
#93 = FACE_OUTER_BOUND ( 'NONE', #181, .T. ) ;
#94 = DIRECTION ( 'NONE',  ( -3.491481338843133355E-15, 1.224646799147353207E-16, -1.000000000000000000 ) ) ;
#95 = EDGE_CURVE ( 'NONE', #283, #283, #222, .T. ) ;
#96 =( LENGTH_UNIT ( ) NAMED_UNIT ( * ) SI_UNIT ( .MILLI., .METRE. ) );
#97 = ORIENTED_EDGE ( 'NONE', *, *, #62, .F. ) ;
#98 = CONICAL_SURFACE ( 'NONE', #264, 1.200000000000001732, 0.7853981633974453924 ) ;
#99 = APPROVAL_DATE_TIME ( #5, #86 ) ;
#100 = EDGE_LOOP ( 'NONE', ( #248 ) ) ;
#101 = CALENDAR_DATE ( 2021, 1, 12 ) ;
#102 = EDGE_LOOP ( 'NONE', ( #269 ) ) ;
#103 = ADVANCED_FACE ( 'NONE', ( #128, #297 ), #203, .T. ) ;
#104 = VERTEX_POINT ( 'NONE', #59 ) ;
#105 = CARTESIAN_POINT ( 'NONE',  ( 2.793185071074506684E-14, -9.797174393178825657E-16, 8.000000000000000000 ) ) ;
#106 = EDGE_LOOP ( 'NONE', ( #124 ) ) ;
#107 = ORIENTED_EDGE ( 'NONE', *, *, #201, .F. ) ;
#108 = EDGE_LOOP ( 'NONE', ( #285 ) ) ;
#109 = DATE_TIME_ROLE ( 'classification_date' ) ;
#110 = DIRECTION ( 'NONE',  ( 0.0000000000000000000, 1.000000000000000000, 0.0000000000000000000 ) ) ;
#111 = ORGANIZATION ( 'UNSPECIFIED', 'UNSPECIFIED', '' ) ;
#112 = CARTESIAN_POINT ( 'NONE',  ( 2.793185071074506684E-14, 7.461304918742727641E-33, 8.000000000000000000 ) ) ;
#113 = PRODUCT_DEFINITION ( 'UNKNOWN', '', #214, #48 ) ;
#114 = APPLICATION_CONTEXT ( 'configuration controlled 3d designs of mechanical parts and assemblies' ) ;
#115 = DIRECTION ( 'NONE',  ( 4.275831445896958607E-31, 1.000000000000000000, 1.224646799147353207E-16 ) ) ;
#116 = ADVANCED_FACE ( 'NONE', ( #162 ), #46, .F. ) ;
#117 = FACE_BOUND ( 'NONE', #153, .T. ) ;
#118 = DIRECTION ( 'NONE',  ( -3.491481338843133355E-15, 1.224646799147353207E-16, -1.000000000000000000 ) ) ;
#119 = AXIS2_PLACEMENT_3D ( 'NONE', #272, #29, #120 ) ;
#120 = DIRECTION ( 'NONE',  ( 4.275831445896958607E-31, 1.000000000000000000, 1.224646799147353207E-16 ) ) ;
#121 = CARTESIAN_POINT ( 'NONE',  ( 2.793185071074506684E-14, 0.9949999999999988853, 8.000000000000000000 ) ) ;
#122 = CALENDAR_DATE ( 2021, 1, 12 ) ;
#123 = COORDINATED_UNIVERSAL_TIME_OFFSET ( 1, 0, .AHEAD. ) ;
#124 = ORIENTED_EDGE ( 'NONE', *, *, #289, .F. ) ;
#125 = CC_DESIGN_PERSON_AND_ORGANIZATION_ASSIGNMENT ( #171, #34, ( #113 ) ) ;
#126 = AXIS2_PLACEMENT_3D ( 'NONE', #47, #252, #188 ) ;
#127 = PERSON_AND_ORGANIZATION_ROLE ( 'creator' ) ;
#128 = FACE_BOUND ( 'NONE', #84, .T. ) ;
#129 = APPLICATION_CONTEXT ( 'configuration controlled 3d designs of mechanical parts and assemblies' ) ;
#130 = PERSON_AND_ORGANIZATION ( #79, #111 ) ;
#131 = EDGE_CURVE ( 'NONE', #238, #238, #74, .T. ) ;
#132 = ORIENTED_EDGE ( 'NONE', *, *, #131, .F. ) ;
#133 = CALENDAR_DATE ( 2021, 1, 12 ) ;
#134 = TOROIDAL_SURFACE ( 'NONE', #179, 2.844999999999999751, 2.000000000000000888 ) ;
#135 = CONICAL_SURFACE ( 'NONE', #223, 0.9949999999999988853, 0.5235987755982919323 ) ;
#136 = ORIENTED_EDGE ( 'NONE', *, *, #95, .T. ) ;
#137 = EDGE_CURVE ( 'NONE', #10, #10, #13, .T. ) ;
#138 = DATE_AND_TIME ( #241, #257 ) ;
#139 = DIRECTION ( 'NONE',  ( 0.0000000000000000000, 1.000000000000000000, 0.0000000000000000000 ) ) ;
#140 = DIRECTION ( 'NONE',  ( 0.0000000000000000000, 1.000000000000000000, 0.0000000000000000000 ) ) ;
#141 = FACE_OUTER_BOUND ( 'NONE', #106, .T. ) ;
#142 = AXIS2_PLACEMENT_3D ( 'NONE', #75, #49, #276 ) ;
#143 = FACE_OUTER_BOUND ( 'NONE', #100, .T. ) ;
#144 = CARTESIAN_POINT ( 'NONE',  ( 6.284666409917640040E-14, -2.168404344971008868E-15, 18.00000000000000000 ) ) ;
#145 = DIRECTION ( 'NONE',  ( -3.491481338843133355E-15, 1.224646799147353207E-16, -1.000000000000000000 ) ) ;
#146 = PRODUCT_DEFINITION_SHAPE ( 'NONE', 'NONE',  #113 ) ;
#147 = AXIS2_PLACEMENT_3D ( 'NONE', #260, #70, #220 ) ;
#148 = MANIFOLD_SOLID_BREP ( 'Corps-Déplacer/Copier1[1]', #18 ) ;
#149 = CARTESIAN_POINT ( 'NONE',  ( 0.0000000000000000000, 0.0000000000000000000, 0.0000000000000000000 ) ) ;
#150 = PERSON_AND_ORGANIZATION_ROLE ( 'design_owner' ) ;
#151 = EDGE_LOOP ( 'NONE', ( #20 ) ) ;
#152 = AXIS2_PLACEMENT_3D ( 'NONE', #91, #273, #206 ) ;
#153 = EDGE_LOOP ( 'NONE', ( #136 ) ) ;
#154 = DIRECTION ( 'NONE',  ( -3.491481338843133355E-15, 1.224646799147353207E-16, -1.000000000000000000 ) ) ;
#155 = PERSON_AND_ORGANIZATION ( #79, #111 ) ;
#156 = CIRCLE ( 'NONE', #169, 0.8506624327025947840 ) ;
#157 = ORIENTED_EDGE ( 'NONE', *, *, #28, .T. ) ;
#158 = ADVANCED_FACE ( 'NONE', ( #25, #24 ), #134, .F. ) ;
#159 = FACE_OUTER_BOUND ( 'NONE', #37, .T. ) ;
#160 = CC_DESIGN_APPROVAL ( #86, ( #113 ) ) ;
#161 = APPROVAL_ROLE ( '' ) ;
#162 = FACE_OUTER_BOUND ( 'NONE', #225, .T. ) ;
#163 = PLANE ( 'NONE',  #142 ) ;
#164 = CYLINDRICAL_SURFACE ( 'NONE', #119, 0.8449999999999993072 ) ;
#165 = AXIS2_PLACEMENT_3D ( 'NONE', #81, #88, #244 ) ;
#166 = CARTESIAN_POINT ( 'NONE',  ( 0.0000000000000000000, 0.0000000000000000000, 0.0000000000000000000 ) ) ;
#167 = DIRECTION ( 'NONE',  ( 0.0000000000000000000, 1.000000000000000000, 0.0000000000000000000 ) ) ;
#168 = CARTESIAN_POINT ( 'NONE',  ( 1.745740669421566678E-13, -6.123233995736766085E-15, 50.00000000000000000 ) ) ;
#169 = AXIS2_PLACEMENT_3D ( 'NONE', #249, #211, #77 ) ;
#170 = CARTESIAN_POINT ( 'NONE',  ( 8.728703347107833388E-16, 0.9949999999999988853, 0.2500000000000000000 ) ) ;
#171 = PERSON_AND_ORGANIZATION ( #79, #111 ) ;
#172 = ADVANCED_BREP_SHAPE_REPRESENTATION ( '200791', ( #148, #41, #232 ), #259 ) ;
#173 = ORIENTED_EDGE ( 'NONE', *, *, #289, .T. ) ;
#174 = APPLICATION_PROTOCOL_DEFINITION ( 'international standard', 'config_control_design', 1994, #129 ) ;
#175 = AXIS2_PLACEMENT_3D ( 'NONE', #166, #71, #23 ) ;
#176 = ORIENTED_EDGE ( 'NONE', *, *, #32, .T. ) ;
#177 = DIRECTION ( 'NONE',  ( -3.491481338843133355E-15, 1.224646799147353207E-16, -1.000000000000000000 ) ) ;
#178 = CARTESIAN_POINT ( 'NONE',  ( 1.745740669421566678E-13, -6.123233995736766085E-15, 50.00000000000000000 ) ) ;
#179 = AXIS2_PLACEMENT_3D ( 'NONE', #144, #183, #250 ) ;
#180 = ADVANCED_FACE ( 'NONE', ( #234 ), #299, .F. ) ;
#181 = EDGE_LOOP ( 'NONE', ( #292 ) ) ;
#182 = DIRECTION ( 'NONE',  ( 0.0000000000000000000, 1.000000000000000000, 0.0000000000000000000 ) ) ;
#183 = DIRECTION ( 'NONE',  ( -3.491481338843133355E-15, 1.224646799147353207E-16, -1.000000000000000000 ) ) ;
#184 = ADVANCED_FACE ( 'NONE', ( #301, #143 ), #164, .T. ) ;
#185 = DIRECTION ( 'NONE',  ( -3.491481338843133355E-15, 1.224646799147353207E-16, -1.000000000000000000 ) ) ;
#186 = ADVANCED_FACE ( 'NONE', ( #76, #117 ), #44, .T. ) ;
#187 = PLANE ( 'NONE',  #246 ) ;
#188 = DIRECTION ( 'NONE',  ( 0.0000000000000000000, 1.000000000000000000, 0.0000000000000000000 ) ) ;
#189 = DIRECTION ( 'NONE',  ( 1.000000000000000000, 0.0000000000000000000, 0.0000000000000000000 ) ) ;
#190 = PERSON_AND_ORGANIZATION ( #79, #111 ) ;
#191 = EDGE_LOOP ( 'NONE', ( #107 ) ) ;
#192 = APPROVAL ( #63, 'UNSPECIFIED' ) ;
#193 = VERTEX_POINT ( 'NONE', #287 ) ;
#194 = EDGE_LOOP ( 'NONE', ( #9 ) ) ;
#195 = CC_DESIGN_APPROVAL ( #83, ( #73 ) ) ;
#196 = AXIS2_PLACEMENT_3D ( 'NONE', #89, #118, #279 ) ;
#197 = EDGE_LOOP ( 'NONE', ( #199 ) ) ;
#198 = COORDINATED_UNIVERSAL_TIME_OFFSET ( 1, 0, .AHEAD. ) ;
#199 = ORIENTED_EDGE ( 'NONE', *, *, #137, .T. ) ;
#200 = COORDINATED_UNIVERSAL_TIME_OFFSET ( 1, 0, .AHEAD. ) ;
#201 = EDGE_CURVE ( 'NONE', #284, #284, #156, .T. ) ;
#202 = DIRECTION ( 'NONE',  ( -3.491481338843133355E-15, 1.224646799147353207E-16, -1.000000000000000000 ) ) ;
#203 = CONICAL_SURFACE ( 'NONE', #147, 1.499999999999996669, 0.1745329251994264530 ) ;
#204 = DIRECTION ( 'NONE',  ( -4.275831445896958607E-31, -1.000000000000000000, -1.224646799147353207E-16 ) ) ;
#205 = UNCERTAINTY_MEASURE_WITH_UNIT (LENGTH_MEASURE( 1.000000000000000082E-05 ), #96, 'distance_accuracy_value', 'NONE');
#206 = DIRECTION ( 'NONE',  ( -4.275831445896958607E-31, -1.000000000000000000, -1.224646799147353207E-16 ) ) ;
#207 = FACE_BOUND ( 'NONE', #102, .T. ) ;
#208 = CLOSED_SHELL ( 'NONE', ( #180, #293, #253, #243 ) ) ;
#209 = DIRECTION ( 'NONE',  ( -3.871215968617563867E-31, -1.000000000000000000, -1.089650424608548398E-16 ) ) ;
#210 = CIRCLE ( 'NONE', #1, 0.9949999999999999956 ) ;
#211 = DIRECTION ( 'NONE',  ( -3.491481338843133355E-15, 1.224646799147353207E-16, -1.000000000000000000 ) ) ;
#212 = CC_DESIGN_DATE_AND_TIME_ASSIGNMENT ( #138, #109, ( #73 ) ) ;
#213 = CARTESIAN_POINT ( 'NONE',  ( 6.284666409917640040E-14, 0.8449999999999976419, 18.00000000000000000 ) ) ;
#214 = PRODUCT_DEFINITION_FORMATION_WITH_SPECIFIED_SOURCE ( 'ANY', '', #274, .NOT_KNOWN. ) ;
#215 = DATE_AND_TIME ( #101, #55 ) ;
#216 = CARTESIAN_POINT ( 'NONE',  ( 8.728703347107829444E-16, -3.061616997868381785E-17, 0.2499999999999998890 ) ) ;
#217 = APPLICATION_PROTOCOL_DEFINITION ( 'international standard', 'config_control_design', 1994, #114 ) ;
#218 = VERTEX_POINT ( 'NONE', #121 ) ;
#219 = APPROVAL_PERSON_ORGANIZATION ( #60, #83, #42 ) ;
#220 = DIRECTION ( 'NONE',  ( 0.0000000000000000000, -1.000000000000000000, 0.0000000000000000000 ) ) ;
#221 = ORIENTED_EDGE ( 'NONE', *, *, #303, .F. ) ;
#222 = CIRCLE ( 'NONE', #92, 0.8449999999999987521 ) ;
#223 = AXIS2_PLACEMENT_3D ( 'NONE', #72, #231, #209 ) ;
#224 = PERSON_AND_ORGANIZATION_ROLE ( 'classification_officer' ) ;
#225 = EDGE_LOOP ( 'NONE', ( #97 ) ) ;
#226 = CC_DESIGN_PERSON_AND_ORGANIZATION_ASSIGNMENT ( #155, #263, ( #214 ) ) ;
#227 = CARTESIAN_POINT ( 'NONE',  ( 6.284666409917640040E-14, -2.204364238465235428E-15, 18.00000000000000000 ) ) ;
#228 = FACE_BOUND ( 'NONE', #191, .T. ) ;
#229 = AXIS2_PLACEMENT_3D ( 'NONE', #2, #145, #115 ) ;
#230 = CYLINDRICAL_SURFACE ( 'NONE', #175, 0.9949999999999993294 ) ;
#231 = DIRECTION ( 'NONE',  ( 3.491481338843133355E-15, -1.224646799147353207E-16, 1.000000000000000000 ) ) ;
#232 = AXIS2_PLACEMENT_3D ( 'NONE', #149, #258, #189 ) ;
#233 = AXIS2_PLACEMENT_3D ( 'NONE', #216, #177, #267 ) ;
#234 = FACE_OUTER_BOUND ( 'NONE', #40, .T. ) ;
#235 = APPROVAL_STATUS ( 'not_yet_approved' ) ;
#236 = CARTESIAN_POINT ( 'NONE',  ( 2.883896417162832445E-14, 0.8449999999999977529, 8.259807621135337286 ) ) ;
#237 = EDGE_LOOP ( 'NONE', ( #176 ) ) ;
#238 = VERTEX_POINT ( 'NONE', #281 ) ;
#239 = DATE_AND_TIME ( #16, #67 ) ;
#240 = ADVANCED_FACE ( 'NONE', ( #141, #207 ), #98, .T. ) ;
#241 = CALENDAR_DATE ( 2021, 1, 12 ) ;
#242 = ORIENTED_EDGE ( 'NONE', *, *, #32, .F. ) ;
#243 = ADVANCED_FACE ( 'NONE', ( #90 ), #163, .T. ) ;
#244 = DIRECTION ( 'NONE',  ( 4.275831445896958607E-31, 1.000000000000000000, 1.224646799147353454E-16 ) ) ;
#245 = CIRCLE ( 'NONE', #233, 0.9949999999999988853 ) ;
#246 = AXIS2_PLACEMENT_3D ( 'NONE', #112, #278, #204 ) ;
#247 = EDGE_LOOP ( 'NONE', ( #291 ) ) ;
#248 = ORIENTED_EDGE ( 'NONE', *, *, #68, .T. ) ;
#249 = CARTESIAN_POINT ( 'NONE',  ( -5.530025005976120510E-31, 1.939671665270140362E-32, -1.583862111606885583E-16 ) ) ;
#250 = DIRECTION ( 'NONE',  ( 4.275831445896958607E-31, 1.000000000000000000, 1.224646799147353207E-16 ) ) ;
#251 = CARTESIAN_POINT ( 'NONE',  ( 2.883896417162832445E-14, -1.011534696479630343E-15, 8.259807621135337286 ) ) ;
#252 = DIRECTION ( 'NONE',  ( -3.491481338843133355E-15, 1.224646799147353207E-16, -1.000000000000000000 ) ) ;
#253 = ADVANCED_FACE ( 'NONE', ( #3, #302 ), #230, .T. ) ;
#254 = CC_DESIGN_SECURITY_CLASSIFICATION ( #73, ( #214 ) ) ;
#255 = PERSON_AND_ORGANIZATION ( #79, #111 ) ;
#256 = MECHANICAL_CONTEXT ( 'NONE', #114, 'mechanical' ) ;
#257 = LOCAL_TIME ( 15, 3, 45.00000000000000000, #268 ) ;
#258 = DIRECTION ( 'NONE',  ( 0.0000000000000000000, 0.0000000000000000000, 1.000000000000000000 ) ) ;
#259 =( GEOMETRIC_REPRESENTATION_CONTEXT ( 3 ) GLOBAL_UNCERTAINTY_ASSIGNED_CONTEXT ( ( #205 ) ) GLOBAL_UNIT_ASSIGNED_CONTEXT ( ( #96, #35, #12 ) ) REPRESENTATION_CONTEXT ( 'NONE', 'WORKASPACE' ) );
#260 = CARTESIAN_POINT ( 'NONE',  ( 7.642736356083669471E-14, -2.680711052663451523E-15, 21.88966691890157179 ) ) ;
#261 = PERSON_AND_ORGANIZATION ( #79, #111 ) ;
#262 = PRODUCT_RELATED_PRODUCT_CATEGORY ( 'detail', '', ( #274 ) ) ;
#263 = PERSON_AND_ORGANIZATION_ROLE ( 'design_supplier' ) ;
#264 = AXIS2_PLACEMENT_3D ( 'NONE', #168, #185, #182 ) ;
#265 = ORIENTED_EDGE ( 'NONE', *, *, #201, .T. ) ;
#266 = PERSON_AND_ORGANIZATION ( #79, #111 ) ;
#267 = DIRECTION ( 'NONE',  ( 3.871215968617563867E-31, 1.000000000000000000, 1.089650424608548398E-16 ) ) ;
#268 = COORDINATED_UNIVERSAL_TIME_OFFSET ( 1, 0, .AHEAD. ) ;
#269 = ORIENTED_EDGE ( 'NONE', *, *, #62, .T. ) ;
#270 = CIRCLE ( 'NONE', #280, 1.200000000000001732 ) ;
#271 = CARTESIAN_POINT ( 'NONE',  ( 2.883896417162832445E-14, -1.011534696479630343E-15, 8.259807621135337286 ) ) ;
#272 = CARTESIAN_POINT ( 'NONE',  ( 0.0000000000000000000, 0.0000000000000000000, 0.0000000000000000000 ) ) ;
#273 = DIRECTION ( 'NONE',  ( 3.491481338843133355E-15, -1.224646799147353207E-16, 1.000000000000000000 ) ) ;
#274 = PRODUCT ( '200791', '200791', '', ( #256 ) ) ;
#275 = CIRCLE ( 'NONE', #61, 0.9949999999999999956 ) ;
#276 = DIRECTION ( 'NONE',  ( -4.275831445896958607E-31, -1.000000000000000000, -1.224646799147353207E-16 ) ) ;
#277 = CC_DESIGN_PERSON_AND_ORGANIZATION_ASSIGNMENT ( #266, #127, ( #214 ) ) ;
#278 = DIRECTION ( 'NONE',  ( 3.491481338843133355E-15, -1.224646799147353207E-16, 1.000000000000000000 ) ) ;
#279 = DIRECTION ( 'NONE',  ( 0.0000000000000000000, 1.000000000000000000, 0.0000000000000000000 ) ) ;
#280 = AXIS2_PLACEMENT_3D ( 'NONE', #178, #45, #139 ) ;
#281 = CARTESIAN_POINT ( 'NONE',  ( 6.405924284287275164E-14, 0.8753844939755773824, 18.34729635533384595 ) ) ;
#282 = CC_DESIGN_PERSON_AND_ORGANIZATION_ASSIGNMENT ( #130, #224, ( #73 ) ) ;
#283 = VERTEX_POINT ( 'NONE', #236 ) ;
#284 = VERTEX_POINT ( 'NONE', #4 ) ;
#285 = ORIENTED_EDGE ( 'NONE', *, *, #137, .F. ) ;
#286 = LOCAL_TIME ( 15, 3, 45.00000000000000000, #80 ) ;
#287 = CARTESIAN_POINT ( 'NONE',  ( 1.745740669421566678E-13, 1.199999999999995515, 50.00000000000000000 ) ) ;
#288 = CIRCLE ( 'NONE', #82, 1.500000000000001554 ) ;
#289 = EDGE_CURVE ( 'NONE', #52, #52, #288, .T. ) ;
#290 = APPROVAL_PERSON_ORGANIZATION ( #261, #86, #31 ) ;
#291 = ORIENTED_EDGE ( 'NONE', *, *, #131, .T. ) ;
#292 = ORIENTED_EDGE ( 'NONE', *, *, #303, .T. ) ;
#293 = ADVANCED_FACE ( 'NONE', ( #228, #26 ), #135, .T. ) ;
#294 = SHAPE_DEFINITION_REPRESENTATION ( #146, #172 ) ;
#295 = ORIENTED_EDGE ( 'NONE', *, *, #28, .F. ) ;
#296 = SECURITY_CLASSIFICATION_LEVEL ( 'unclassified' ) ;
#297 = FACE_OUTER_BOUND ( 'NONE', #197, .T. ) ;
#298 = CIRCLE ( 'NONE', #56, 0.8449999999999998623 ) ;
#299 = PLANE ( 'NONE',  #152 ) ;
#300 = ADVANCED_FACE ( 'NONE', ( #93 ), #187, .F. ) ;
#301 = FACE_OUTER_BOUND ( 'NONE', #194, .T. ) ;
#302 = FACE_OUTER_BOUND ( 'NONE', #58, .T. ) ;
#303 = EDGE_CURVE ( 'NONE', #218, #218, #210, .T. ) ;
ENDSEC;
END-ISO-10303-21;
