ISO-10303-21;
HEADER;
FILE_DESCRIPTION (( 'STEP AP203' ),
    '1' );
FILE_NAME ('200790.step',
    '2021-12-01T14:03:45',
    ( '' ),
    ( '' ),
    'SwSTEP 2.0',
    'SolidWorks 2019',
    '' );
FILE_SCHEMA (( 'CONFIG_CONTROL_DESIGN' ));
ENDSEC;

DATA;
#1 = ORIENTED_EDGE ( 'NONE', *, *, #23, .F. ) ;
#2 = DIRECTION ( 'NONE',  ( 0.0000000000000000000, -1.000000000000000000, 0.0000000000000000000 ) ) ;
#3 = CC_DESIGN_PERSON_AND_ORGANIZATION_ASSIGNMENT ( #69, #237, ( #77 ) ) ;
#4 = DIRECTION ( 'NONE',  ( 3.491481338843133355E-15, -1.224646799147353207E-16, 1.000000000000000000 ) ) ;
#5 = FACE_OUTER_BOUND ( 'NONE', #124, .T. ) ;
#6 = DIRECTION ( 'NONE',  ( 0.0000000000000000000, 1.000000000000000000, 0.0000000000000000000 ) ) ;
#7 = CONICAL_SURFACE ( 'NONE', #169, 0.8399999999999988587, 0.5235987755982937086 ) ;
#8 = CARTESIAN_POINT ( 'NONE',  ( 2.793185071074506684E-14, 7.423810924176179558E-33, 8.000000000000000000 ) ) ;
#9 = DIRECTION ( 'NONE',  ( 3.491481338843133355E-15, -1.224646799147353207E-16, 1.000000000000000000 ) ) ;
#10 = CIRCLE ( 'NONE', #182, 1.500000000000001554 ) ;
#11 = EDGE_CURVE ( 'NONE', #102, #102, #111, .T. ) ;
#12 = VERTEX_POINT ( 'NONE', #177 ) ;
#13 = DIRECTION ( 'NONE',  ( 3.491481338843133355E-15, -1.224646799147353207E-16, 1.000000000000000000 ) ) ;
#14 = COORDINATED_UNIVERSAL_TIME_OFFSET ( 1, 0, .AHEAD. ) ;
#15 = CIRCLE ( 'NONE', #264, 0.8399999999999988587 ) ;
#16 = CC_DESIGN_APPROVAL ( #90, ( #68 ) ) ;
#17 = VERTEX_POINT ( 'NONE', #232 ) ;
#18 = CARTESIAN_POINT ( 'NONE',  ( 0.0000000000000000000, 0.0000000000000000000, 0.0000000000000000000 ) ) ;
#19 = APPLICATION_CONTEXT ( 'configuration controlled 3d designs of mechanical parts and assemblies' ) ;
#20 = MANIFOLD_SOLID_BREP ( 'Corps-Déplacer/Copier1[1]', #100 ) ;
#21 = DIRECTION ( 'NONE',  ( -3.491481338843133355E-15, 1.224646799147353207E-16, -1.000000000000000000 ) ) ;
#22 = LOCAL_TIME ( 15, 3, 45.00000000000000000, #140 ) ;
#23 = EDGE_CURVE ( 'NONE', #240, #240, #303, .T. ) ;
#24 = DIRECTION ( 'NONE',  ( -3.491481338843133355E-15, 1.224646799147353207E-16, -1.000000000000000000 ) ) ;
#25 = EDGE_LOOP ( 'NONE', ( #211 ) ) ;
#26 = CARTESIAN_POINT ( 'NONE',  ( 7.652636943403927905E-14, -2.684183711227179917E-15, 21.91802332799965924 ) ) ;
#27 = FACE_OUTER_BOUND ( 'NONE', #57, .T. ) ;
#28 = ORIENTED_EDGE ( 'NONE', *, *, #255, .F. ) ;
#29 = ADVANCED_FACE ( 'NONE', ( #75, #122 ), #165, .T. ) ;
#30 = AXIS2_PLACEMENT_3D ( 'NONE', #285, #13, #154 ) ;
#31 = AXIS2_PLACEMENT_3D ( 'NONE', #60, #226, #278 ) ;
#32 = ORIENTED_EDGE ( 'NONE', *, *, #175, .T. ) ;
#33 = DIRECTION ( 'NONE',  ( -3.491481338843133355E-15, 1.224646799147353207E-16, -1.000000000000000000 ) ) ;
#34 = PRODUCT_DEFINITION_FORMATION_WITH_SPECIFIED_SOURCE ( 'ANY', '', #201, .NOT_KNOWN. ) ;
#35 = DIRECTION ( 'NONE',  ( -4.275831445896958607E-31, -1.000000000000000000, -1.224646799147353207E-16 ) ) ;
#36 = APPROVAL_ROLE ( '' ) ;
#37 = CARTESIAN_POINT ( 'NONE',  ( 1.745740669421566678E-13, 1.199999999999995515, 50.00000000000000000 ) ) ;
#38 = CARTESIAN_POINT ( 'NONE',  ( 2.793185071074506684E-14, -9.797174393178825657E-16, 8.000000000000000000 ) ) ;
#39 = AXIS2_PLACEMENT_3D ( 'NONE', #189, #50, #234 ) ;
#40 = APPLICATION_PROTOCOL_DEFINITION ( 'international standard', 'config_control_design', 1994, #47 ) ;
#41 = CARTESIAN_POINT ( 'NONE',  ( 6.284666409917640040E-14, -2.168404344971008868E-15, 18.00000000000000000 ) ) ;
#42 = VERTEX_POINT ( 'NONE', #251 ) ;
#43 = CARTESIAN_POINT ( 'NONE',  ( 7.652636943403927905E-14, -2.684183711227179917E-15, 21.91802332799965924 ) ) ;
#44 = CC_DESIGN_DATE_AND_TIME_ASSIGNMENT ( #272, #295, ( #77 ) ) ;
#45 = CARTESIAN_POINT ( 'NONE',  ( 0.0000000000000000000, 0.0000000000000000000, 0.0000000000000000000 ) ) ;
#46 = PRODUCT_DEFINITION_SHAPE ( 'NONE', 'NONE',  #77 ) ;
#47 = APPLICATION_CONTEXT ( 'configuration controlled 3d designs of mechanical parts and assemblies' ) ;
#48 = APPROVAL_ROLE ( '' ) ;
#49 = ORIENTED_EDGE ( 'NONE', *, *, #248, .T. ) ;
#50 = DIRECTION ( 'NONE',  ( -3.491481338843133355E-15, 1.224646799147353207E-16, -1.000000000000000000 ) ) ;
#51 = APPROVAL_PERSON_ORGANIZATION ( #209, #90, #48 ) ;
#52 = ORIENTED_EDGE ( 'NONE', *, *, #147, .F. ) ;
#53 = CARTESIAN_POINT ( 'NONE',  ( 1.735266225405037467E-13, -6.086494591762345225E-15, 49.70000000000000284 ) ) ;
#54 = CARTESIAN_POINT ( 'NONE',  ( 1.745740669421566678E-13, 8.998558695971067645E-33, 50.00000000000000000 ) ) ;
#55 = EDGE_LOOP ( 'NONE', ( #166 ) ) ;
#56 = EDGE_CURVE ( 'NONE', #260, #260, #275, .T. ) ;
#57 = EDGE_LOOP ( 'NONE', ( #185 ) ) ;
#58 = FACE_OUTER_BOUND ( 'NONE', #279, .T. ) ;
#59 = AXIS2_PLACEMENT_3D ( 'NONE', #239, #228, #65 ) ;
#60 = CARTESIAN_POINT ( 'NONE',  ( 0.0000000000000000000, 0.0000000000000000000, 0.0000000000000000000 ) ) ;
#61 = DIRECTION ( 'NONE',  ( -3.491481338843133355E-15, 1.224646799147353207E-16, -1.000000000000000000 ) ) ;
#62 = ORIENTED_EDGE ( 'NONE', *, *, #225, .T. ) ;
#63 = APPROVAL_PERSON_ORGANIZATION ( #87, #244, #238 ) ;
#64 = DIRECTION ( 'NONE',  ( 0.0000000000000000000, 1.000000000000000000, 0.0000000000000000000 ) ) ;
#65 = DIRECTION ( 'NONE',  ( -4.275831445896958607E-31, -1.000000000000000000, -1.224646799147353207E-16 ) ) ;
#66 = APPROVAL_DATE_TIME ( #81, #244 ) ;
#67 = APPROVAL ( #114, 'UNSPECIFIED' ) ;
#68 = SECURITY_CLASSIFICATION ( '', '', #144 ) ;
#69 = PERSON_AND_ORGANIZATION ( #120, #294 ) ;
#70 = DIRECTION ( 'NONE',  ( 3.890767564418662898E-31, 1.000000000000000000, 1.095153709581318907E-16 ) ) ;
#71 = APPROVAL_STATUS ( 'not_yet_approved' ) ;
#72 = AXIS2_PLACEMENT_3D ( 'NONE', #125, #24, #103 ) ;
#73 = ADVANCED_FACE ( 'NONE', ( #197, #106 ), #291, .T. ) ;
#74 = DIRECTION ( 'NONE',  ( -4.275831445896958607E-31, -1.000000000000000000, -1.224646799147353207E-16 ) ) ;
#75 = FACE_OUTER_BOUND ( 'NONE', #98, .T. ) ;
#76 = CC_DESIGN_APPROVAL ( #244, ( #34 ) ) ;
#77 = PRODUCT_DEFINITION ( 'UNKNOWN', '', #34, #213 ) ;
#78 = EDGE_LOOP ( 'NONE', ( #219 ) ) ;
#79 = EDGE_LOOP ( 'NONE', ( #121 ) ) ;
#80 = AXIS2_PLACEMENT_3D ( 'NONE', #204, #290, #70 ) ;
#81 = DATE_AND_TIME ( #132, #155 ) ;
#82 = EDGE_CURVE ( 'NONE', #293, #293, #126, .T. ) ;
#83 = DIRECTION ( 'NONE',  ( -3.491481338843133355E-15, 1.224646799147353207E-16, -1.000000000000000000 ) ) ;
#84 = VERTEX_POINT ( 'NONE', #202 ) ;
#85 = DATE_AND_TIME ( #203, #252 ) ;
#86 = CC_DESIGN_SECURITY_CLASSIFICATION ( #68, ( #34 ) ) ;
#87 = PERSON_AND_ORGANIZATION ( #120, #294 ) ;
#88 = DIRECTION ( 'NONE',  ( -3.491481338843133355E-15, 1.224646799147353207E-16, -1.000000000000000000 ) ) ;
#89 = PERSON_AND_ORGANIZATION_ROLE ( 'design_supplier' ) ;
#90 = APPROVAL ( #256, 'UNSPECIFIED' ) ;
#91 = CONICAL_SURFACE ( 'NONE', #129, 1.200000000000001732, 0.7853981633974453924 ) ;
#92 = CYLINDRICAL_SURFACE ( 'NONE', #31, 0.8399999999999994138 ) ;
#93 = ORIENTED_EDGE ( 'NONE', *, *, #274, .T. ) ;
#94 = CARTESIAN_POINT ( 'NONE',  ( 8.728703347107833388E-16, 0.9899999999999988809, 0.2500000000000000000 ) ) ;
#95 = ADVANCED_FACE ( 'NONE', ( #145, #123 ), #198, .F. ) ;
#96 = FACE_OUTER_BOUND ( 'NONE', #25, .T. ) ;
#97 = DATE_AND_TIME ( #298, #227 ) ;
#98 = EDGE_LOOP ( 'NONE', ( #173 ) ) ;
#99 = DIRECTION ( 'NONE',  ( 0.0000000000000000000, 1.000000000000000000, 0.0000000000000000000 ) ) ;
#100 = CLOSED_SHELL ( 'NONE', ( #151, #109, #229, #95, #168, #139, #136, #190 ) ) ;
#101 = ORIENTED_EDGE ( 'NONE', *, *, #82, .T. ) ;
#102 = VERTEX_POINT ( 'NONE', #208 ) ;
#103 = DIRECTION ( 'NONE',  ( 0.0000000000000000000, 1.000000000000000000, 0.0000000000000000000 ) ) ;
#104 = DIRECTION ( 'NONE',  ( 0.0000000000000000000, 1.000000000000000000, 0.0000000000000000000 ) ) ;
#105 = CARTESIAN_POINT ( 'NONE',  ( -3.615910022363474658E-31, 1.268290506275341086E-32, -1.035637791368396490E-16 ) ) ;
#106 = FACE_OUTER_BOUND ( 'NONE', #181, .T. ) ;
#107 = PLANE ( 'NONE',  #276 ) ;
#108 = CIRCLE ( 'NONE', #148, 0.9899999999999999911 ) ;
#109 = ADVANCED_FACE ( 'NONE', ( #27, #273 ), #7, .T. ) ;
#110 = DIRECTION ( 'NONE',  ( -3.491481338843133355E-15, 1.224646799147353207E-16, -1.000000000000000000 ) ) ;
#111 = CIRCLE ( 'NONE', #266, 0.9899999999999999911 ) ;
#112 =( NAMED_UNIT ( * ) SI_UNIT ( $, .STERADIAN. ) SOLID_ANGLE_UNIT ( ) );
#113 = AXIS2_PLACEMENT_3D ( 'NONE', #43, #83, #137 ) ;
#114 = APPROVAL_STATUS ( 'not_yet_approved' ) ;
#115 = COORDINATED_UNIVERSAL_TIME_OFFSET ( 1, 0, .AHEAD. ) ;
#116 = CC_DESIGN_PERSON_AND_ORGANIZATION_ASSIGNMENT ( #270, #253, ( #201 ) ) ;
#117 = APPROVAL_DATE_TIME ( #97, #90 ) ;
#118 = AXIS2_PLACEMENT_3D ( 'NONE', #26, #220, #2 ) ;
#119 = PERSON_AND_ORGANIZATION ( #120, #294 ) ;
#120 = PERSON ( 'UNSPECIFIED', 'UNSPECIFIED', 'UNSPECIFIED', ('UNSPECIFIED'), ('UNSPECIFIED'), ('UNSPECIFIED') ) ;
#121 = ORIENTED_EDGE ( 'NONE', *, *, #11, .T. ) ;
#122 = FACE_OUTER_BOUND ( 'NONE', #259, .T. ) ;
#123 = FACE_OUTER_BOUND ( 'NONE', #146, .T. ) ;
#124 = EDGE_LOOP ( 'NONE', ( #257 ) ) ;
#125 = CARTESIAN_POINT ( 'NONE',  ( 6.405924284287275164E-14, -2.246895775456749140E-15, 18.34729635533384595 ) ) ;
#126 = CIRCLE ( 'NONE', #113, 1.499999999999996669 ) ;
#127 = EDGE_LOOP ( 'NONE', ( #180 ) ) ;
#128 = DIRECTION ( 'NONE',  ( 0.0000000000000000000, 1.000000000000000000, 0.0000000000000000000 ) ) ;
#129 = AXIS2_PLACEMENT_3D ( 'NONE', #150, #188, #104 ) ;
#130 = CC_DESIGN_DATE_AND_TIME_ASSIGNMENT ( #282, #214, ( #68 ) ) ;
#131 = CARTESIAN_POINT ( 'NONE',  ( 1.745740669421566678E-13, -6.123233995736766085E-15, 50.00000000000000000 ) ) ;
#132 = CALENDAR_DATE ( 2021, 1, 12 ) ;
#133 =( NAMED_UNIT ( * ) PLANE_ANGLE_UNIT ( ) SI_UNIT ( $, .RADIAN. ) );
#134 =( GEOMETRIC_REPRESENTATION_CONTEXT ( 3 ) GLOBAL_UNCERTAINTY_ASSIGNED_CONTEXT ( ( #258 ) ) GLOBAL_UNIT_ASSIGNED_CONTEXT ( ( #174, #133, #112 ) ) REPRESENTATION_CONTEXT ( 'NONE', 'WORKASPACE' ) );
#135 = DIRECTION ( 'NONE',  ( 0.0000000000000000000, 0.0000000000000000000, 1.000000000000000000 ) ) ;
#136 = ADVANCED_FACE ( 'NONE', ( #223, #267 ), #91, .T. ) ;
#137 = DIRECTION ( 'NONE',  ( 0.0000000000000000000, 1.000000000000000000, 0.0000000000000000000 ) ) ;
#138 = COORDINATED_UNIVERSAL_TIME_OFFSET ( 1, 0, .AHEAD. ) ;
#139 = ADVANCED_FACE ( 'NONE', ( #286, #160 ), #263, .T. ) ;
#140 = COORDINATED_UNIVERSAL_TIME_OFFSET ( 1, 0, .AHEAD. ) ;
#141 = DIRECTION ( 'NONE',  ( 0.0000000000000000000, 1.000000000000000000, 0.0000000000000000000 ) ) ;
#142 = DIRECTION ( 'NONE',  ( -3.491481338843133355E-15, 1.224646799147353207E-16, -1.000000000000000000 ) ) ;
#143 = DIRECTION ( 'NONE',  ( 0.0000000000000000000, 1.000000000000000000, 0.0000000000000000000 ) ) ;
#144 = SECURITY_CLASSIFICATION_LEVEL ( 'unclassified' ) ;
#145 = FACE_OUTER_BOUND ( 'NONE', #161, .T. ) ;
#146 = EDGE_LOOP ( 'NONE', ( #283 ) ) ;
#147 = EDGE_CURVE ( 'NONE', #12, #12, #269, .T. ) ;
#148 = AXIS2_PLACEMENT_3D ( 'NONE', #38, #281, #141 ) ;
#149 = PLANE ( 'NONE',  #159 ) ;
#150 = CARTESIAN_POINT ( 'NONE',  ( 1.745740669421566678E-13, -6.123233995736766085E-15, 50.00000000000000000 ) ) ;
#151 = ADVANCED_FACE ( 'NONE', ( #193 ), #149, .F. ) ;
#152 = PERSON_AND_ORGANIZATION ( #120, #294 ) ;
#153 = MECHANICAL_CONTEXT ( 'NONE', #19, 'mechanical' ) ;
#154 = DIRECTION ( 'NONE',  ( -3.890767564418662898E-31, -1.000000000000000000, -1.095153709581318907E-16 ) ) ;
#155 = LOCAL_TIME ( 15, 3, 45.00000000000000000, #115 ) ;
#156 = APPROVAL_DATE_TIME ( #85, #67 ) ;
#157 = APPLICATION_PROTOCOL_DEFINITION ( 'international standard', 'config_control_design', 1994, #19 ) ;
#158 = DIRECTION ( 'NONE',  ( 4.275831445896958607E-31, 1.000000000000000000, 1.224646799147353207E-16 ) ) ;
#159 = AXIS2_PLACEMENT_3D ( 'NONE', #187, #4, #74 ) ;
#160 = FACE_OUTER_BOUND ( 'NONE', #194, .T. ) ;
#161 = EDGE_LOOP ( 'NONE', ( #1 ) ) ;
#162 = FACE_OUTER_BOUND ( 'NONE', #192, .T. ) ;
#163 = CLOSED_SHELL ( 'NONE', ( #296, #73, #29, #205 ) ) ;
#164 = APPROVAL_PERSON_ORGANIZATION ( #233, #67, #36 ) ;
#165 = CYLINDRICAL_SURFACE ( 'NONE', #39, 0.9899999999999995470 ) ;
#166 = ORIENTED_EDGE ( 'NONE', *, *, #274, .F. ) ;
#167 = DIRECTION ( 'NONE',  ( 4.275831445896958607E-31, 1.000000000000000000, 1.224646799147353454E-16 ) ) ;
#168 = ADVANCED_FACE ( 'NONE', ( #287, #162 ), #247, .T. ) ;
#169 = AXIS2_PLACEMENT_3D ( 'NONE', #299, #262, #64 ) ;
#170 = AXIS2_PLACEMENT_3D ( 'NONE', #183, #21, #143 ) ;
#171 = CIRCLE ( 'NONE', #207, 0.8456624327025946686 ) ;
#172 = CARTESIAN_POINT ( 'NONE',  ( 7.652636943403927905E-14, 1.499999999999994005, 21.91802332799965924 ) ) ;
#173 = ORIENTED_EDGE ( 'NONE', *, *, #56, .F. ) ;
#174 =( LENGTH_UNIT ( ) NAMED_UNIT ( * ) SI_UNIT ( .MILLI., .METRE. ) );
#175 = EDGE_CURVE ( 'NONE', #17, #17, #171, .T. ) ;
#176 = CARTESIAN_POINT ( 'NONE',  ( 2.793185071074506684E-14, 0.9899999999999988809, 8.000000000000000000 ) ) ;
#177 = CARTESIAN_POINT ( 'NONE',  ( 6.405924284287275164E-14, 0.8703844939755783772, 18.34729635533384595 ) ) ;
#178 = LOCAL_TIME ( 15, 3, 45.00000000000000000, #14 ) ;
#179 = CC_DESIGN_PERSON_AND_ORGANIZATION_ASSIGNMENT ( #152, #250, ( #34 ) ) ;
#180 = ORIENTED_EDGE ( 'NONE', *, *, #175, .F. ) ;
#181 = EDGE_LOOP ( 'NONE', ( #246 ) ) ;
#182 = AXIS2_PLACEMENT_3D ( 'NONE', #53, #61, #99 ) ;
#183 = CARTESIAN_POINT ( 'NONE',  ( 6.284666409917638777E-14, -2.204364238465235033E-15, 17.99999999999999645 ) ) ;
#184 = SHAPE_DEFINITION_REPRESENTATION ( #46, #191 ) ;
#185 = ORIENTED_EDGE ( 'NONE', *, *, #11, .F. ) ;
#186 = EDGE_LOOP ( 'NONE', ( #62 ) ) ;
#187 = CARTESIAN_POINT ( 'NONE',  ( 2.793185071074506684E-14, 7.423810924176179558E-33, 8.000000000000000000 ) ) ;
#188 = DIRECTION ( 'NONE',  ( -3.491481338843133355E-15, 1.224646799147353207E-16, -1.000000000000000000 ) ) ;
#189 = CARTESIAN_POINT ( 'NONE',  ( 0.0000000000000000000, 0.0000000000000000000, 0.0000000000000000000 ) ) ;
#190 = ADVANCED_FACE ( 'NONE', ( #5 ), #107, .F. ) ;
#191 = ADVANCED_BREP_SHAPE_REPRESENTATION ( '200790', ( #20, #235, #195 ), #134 ) ;
#192 = EDGE_LOOP ( 'NONE', ( #101 ) ) ;
#193 = FACE_OUTER_BOUND ( 'NONE', #79, .T. ) ;
#194 = EDGE_LOOP ( 'NONE', ( #93 ) ) ;
#195 = AXIS2_PLACEMENT_3D ( 'NONE', #45, #135, #268 ) ;
#196 = FACE_OUTER_BOUND ( 'NONE', #302, .T. ) ;
#197 = FACE_BOUND ( 'NONE', #127, .T. ) ;
#198 = TOROIDAL_SURFACE ( 'NONE', #300, 2.839999999999999858, 2.000000000000000888 ) ;
#199 = PERSON_AND_ORGANIZATION ( #120, #294 ) ;
#200 = PRODUCT_RELATED_PRODUCT_CATEGORY ( 'detail', '', ( #201 ) ) ;
#201 = PRODUCT ( '200790', '200790', '', ( #153 ) ) ;
#202 = CARTESIAN_POINT ( 'NONE',  ( 2.883896417162832445E-14, 0.8399999999999978595, 8.259807621135337286 ) ) ;
#203 = CALENDAR_DATE ( 2021, 1, 12 ) ;
#204 = CARTESIAN_POINT ( 'NONE',  ( 8.728703347107829444E-16, -3.061616997868381785E-17, 0.2499999999999998890 ) ) ;
#205 = ADVANCED_FACE ( 'NONE', ( #196 ), #289, .T. ) ;
#206 = CALENDAR_DATE ( 2021, 1, 12 ) ;
#207 = AXIS2_PLACEMENT_3D ( 'NONE', #105, #142, #224 ) ;
#208 = CARTESIAN_POINT ( 'NONE',  ( 2.793185071074506684E-14, 0.9899999999999988809, 8.000000000000000000 ) ) ;
#209 = PERSON_AND_ORGANIZATION ( #120, #294 ) ;
#210 = CC_DESIGN_PERSON_AND_ORGANIZATION_ASSIGNMENT ( #119, #280, ( #68 ) ) ;
#211 = ORIENTED_EDGE ( 'NONE', *, *, #23, .T. ) ;
#212 = CIRCLE ( 'NONE', #254, 1.200000000000001732 ) ;
#213 = DESIGN_CONTEXT ( 'detailed design', #47, 'design' ) ;
#214 = DATE_TIME_ROLE ( 'classification_date' ) ;
#215 = DIRECTION ( 'NONE',  ( 0.0000000000000000000, 1.000000000000000000, 0.0000000000000000000 ) ) ;
#216 = CARTESIAN_POINT ( 'NONE',  ( 2.883896417162832445E-14, -1.011534696479630343E-15, 8.259807621135337286 ) ) ;
#217 = DIRECTION ( 'NONE',  ( -3.491481338843133355E-15, 1.224646799147353207E-16, -1.000000000000000000 ) ) ;
#218 = ORIENTED_EDGE ( 'NONE', *, *, #248, .F. ) ;
#219 = ORIENTED_EDGE ( 'NONE', *, *, #82, .F. ) ;
#220 = DIRECTION ( 'NONE',  ( 3.491481338843133355E-15, -1.224646799147353207E-16, 1.000000000000000000 ) ) ;
#221 = DIRECTION ( 'NONE',  ( -3.491481338843133355E-15, 1.224646799147353207E-16, -1.000000000000000000 ) ) ;
#222 = FACE_OUTER_BOUND ( 'NONE', #241, .T. ) ;
#223 = FACE_OUTER_BOUND ( 'NONE', #55, .T. ) ;
#224 = DIRECTION ( 'NONE',  ( 4.275831445896958607E-31, 1.000000000000000000, 1.224646799147353207E-16 ) ) ;
#225 = EDGE_CURVE ( 'NONE', #292, #292, #212, .T. ) ;
#226 = DIRECTION ( 'NONE',  ( -3.491481338843133355E-15, 1.224646799147353207E-16, -1.000000000000000000 ) ) ;
#227 = LOCAL_TIME ( 15, 3, 45.00000000000000000, #242 ) ;
#228 = DIRECTION ( 'NONE',  ( 3.491481338843133355E-15, -1.224646799147353207E-16, 1.000000000000000000 ) ) ;
#229 = ADVANCED_FACE ( 'NONE', ( #222, #96 ), #92, .T. ) ;
#230 = VERTEX_POINT ( 'NONE', #176 ) ;
#231 = DIRECTION ( 'NONE',  ( 4.275831445896958607E-31, 1.000000000000000000, 1.224646799147353207E-16 ) ) ;
#232 = CARTESIAN_POINT ( 'NONE',  ( 0.0000000000000000000, 0.8456624327025946686, 0.0000000000000000000 ) ) ;
#233 = PERSON_AND_ORGANIZATION ( #120, #294 ) ;
#234 = DIRECTION ( 'NONE',  ( 4.275831445896958607E-31, 1.000000000000000000, 1.224646799147353207E-16 ) ) ;
#235 = MANIFOLD_SOLID_BREP ( 'Corps-Déplacer/Copier1[2]', #163 ) ;
#236 = PLANE ( 'NONE',  #59 ) ;
#237 = PERSON_AND_ORGANIZATION_ROLE ( 'creator' ) ;
#238 = APPROVAL_ROLE ( '' ) ;
#239 = CARTESIAN_POINT ( 'NONE',  ( -1.807955011181737329E-31, 6.341452531376705431E-33, -5.178188956841982450E-17 ) ) ;
#240 = VERTEX_POINT ( 'NONE', #249 ) ;
#241 = EDGE_LOOP ( 'NONE', ( #28 ) ) ;
#242 = COORDINATED_UNIVERSAL_TIME_OFFSET ( 1, 0, .AHEAD. ) ;
#243 = AXIS2_PLACEMENT_3D ( 'NONE', #18, #221, #167 ) ;
#244 = APPROVAL ( #71, 'UNSPECIFIED' ) ;
#245 = DIRECTION ( 'NONE',  ( -3.491481338843133355E-15, 1.224646799147353207E-16, -1.000000000000000000 ) ) ;
#246 = ORIENTED_EDGE ( 'NONE', *, *, #56, .T. ) ;
#247 = CONICAL_SURFACE ( 'NONE', #118, 1.499999999999996669, 0.1745329251994261754 ) ;
#248 = EDGE_CURVE ( 'NONE', #230, #230, #108, .T. ) ;
#249 = CARTESIAN_POINT ( 'NONE',  ( 6.284666409917638777E-14, 0.8399999999999978595, 17.99999999999999645 ) ) ;
#250 = PERSON_AND_ORGANIZATION_ROLE ( 'creator' ) ;
#251 = CARTESIAN_POINT ( 'NONE',  ( 1.735266225405037467E-13, 1.499999999999995559, 49.70000000000000284 ) ) ;
#252 = LOCAL_TIME ( 15, 3, 45.00000000000000000, #138 ) ;
#253 = PERSON_AND_ORGANIZATION_ROLE ( 'design_owner' ) ;
#254 = AXIS2_PLACEMENT_3D ( 'NONE', #131, #110, #128 ) ;
#255 = EDGE_CURVE ( 'NONE', #84, #84, #15, .T. ) ;
#256 = APPROVAL_STATUS ( 'not_yet_approved' ) ;
#257 = ORIENTED_EDGE ( 'NONE', *, *, #225, .F. ) ;
#258 = UNCERTAINTY_MEASURE_WITH_UNIT (LENGTH_MEASURE( 1.000000000000000082E-05 ), #174, 'distance_accuracy_value', 'NONE');
#259 = EDGE_LOOP ( 'NONE', ( #49 ) ) ;
#260 = VERTEX_POINT ( 'NONE', #94 ) ;
#261 = EDGE_LOOP ( 'NONE', ( #277 ) ) ;
#262 = DIRECTION ( 'NONE',  ( -3.491481338843133355E-15, 1.224646799147353207E-16, -1.000000000000000000 ) ) ;
#263 = CYLINDRICAL_SURFACE ( 'NONE', #243, 1.499999999999999112 ) ;
#264 = AXIS2_PLACEMENT_3D ( 'NONE', #216, #245, #6 ) ;
#265 = CC_DESIGN_PERSON_AND_ORGANIZATION_ASSIGNMENT ( #199, #89, ( #34 ) ) ;
#266 = AXIS2_PLACEMENT_3D ( 'NONE', #271, #33, #215 ) ;
#267 = FACE_BOUND ( 'NONE', #186, .T. ) ;
#268 = DIRECTION ( 'NONE',  ( 1.000000000000000000, 0.0000000000000000000, 0.0000000000000000000 ) ) ;
#269 = CIRCLE ( 'NONE', #72, 0.8703844939755807086 ) ;
#270 = PERSON_AND_ORGANIZATION ( #120, #294 ) ;
#271 = CARTESIAN_POINT ( 'NONE',  ( 2.793185071074506684E-14, -9.797174393178825657E-16, 8.000000000000000000 ) ) ;
#272 = DATE_AND_TIME ( #206, #178 ) ;
#273 = FACE_BOUND ( 'NONE', #261, .T. ) ;
#274 = EDGE_CURVE ( 'NONE', #42, #42, #10, .T. ) ;
#275 = CIRCLE ( 'NONE', #80, 0.9899999999999988809 ) ;
#276 = AXIS2_PLACEMENT_3D ( 'NONE', #54, #217, #231 ) ;
#277 = ORIENTED_EDGE ( 'NONE', *, *, #255, .T. ) ;
#278 = DIRECTION ( 'NONE',  ( 4.275831445896958607E-31, 1.000000000000000000, 1.224646799147353207E-16 ) ) ;
#279 = EDGE_LOOP ( 'NONE', ( #32 ) ) ;
#280 = PERSON_AND_ORGANIZATION_ROLE ( 'classification_officer' ) ;
#281 = DIRECTION ( 'NONE',  ( -3.491481338843133355E-15, 1.224646799147353207E-16, -1.000000000000000000 ) ) ;
#282 = DATE_AND_TIME ( #297, #22 ) ;
#283 = ORIENTED_EDGE ( 'NONE', *, *, #147, .T. ) ;
#284 = AXIS2_PLACEMENT_3D ( 'NONE', #8, #9, #35 ) ;
#285 = CARTESIAN_POINT ( 'NONE',  ( 8.728703347107829444E-16, -3.061616997868381785E-17, 0.2499999999999998890 ) ) ;
#286 = FACE_OUTER_BOUND ( 'NONE', #78, .T. ) ;
#287 = FACE_BOUND ( 'NONE', #301, .T. ) ;
#288 = CC_DESIGN_APPROVAL ( #67, ( #77 ) ) ;
#289 = PLANE ( 'NONE',  #284 ) ;
#290 = DIRECTION ( 'NONE',  ( -3.491481338843133355E-15, 1.224646799147353207E-16, -1.000000000000000000 ) ) ;
#291 = CONICAL_SURFACE ( 'NONE', #30, 0.9899999999999988809, 0.5235987755982923764 ) ;
#292 = VERTEX_POINT ( 'NONE', #37 ) ;
#293 = VERTEX_POINT ( 'NONE', #172 ) ;
#294 = ORGANIZATION ( 'UNSPECIFIED', 'UNSPECIFIED', '' ) ;
#295 = DATE_TIME_ROLE ( 'creation_date' ) ;
#296 = ADVANCED_FACE ( 'NONE', ( #58 ), #236, .F. ) ;
#297 = CALENDAR_DATE ( 2021, 1, 12 ) ;
#298 = CALENDAR_DATE ( 2021, 1, 12 ) ;
#299 = CARTESIAN_POINT ( 'NONE',  ( 2.883896417162832445E-14, -1.011534696479630343E-15, 8.259807621135337286 ) ) ;
#300 = AXIS2_PLACEMENT_3D ( 'NONE', #41, #88, #158 ) ;
#301 = EDGE_LOOP ( 'NONE', ( #52 ) ) ;
#302 = EDGE_LOOP ( 'NONE', ( #218 ) ) ;
#303 = CIRCLE ( 'NONE', #170, 0.8400000000000000799 ) ;
ENDSEC;
END-ISO-10303-21;
