ISO-10303-21;
HEADER;
FILE_DESCRIPTION (( 'STEP AP203' ),
    '1' );
FILE_NAME ('20079.step',
    '2021-12-01T14:03:44',
    ( '' ),
    ( '' ),
    'SwSTEP 2.0',
    'SolidWorks 2019',
    '' );
FILE_SCHEMA (( 'CONFIG_CONTROL_DESIGN' ));
ENDSEC;

DATA;
#1 = APPROVAL_ROLE ( '' ) ;
#2 = PERSON_AND_ORGANIZATION_ROLE ( 'creator' ) ;
#3 = PLANE ( 'NONE',  #44 ) ;
#4 = ORIENTED_EDGE ( 'NONE', *, *, #166, .F. ) ;
#5 = CARTESIAN_POINT ( 'NONE',  ( 1.735266225405037467E-13, -6.086494591762345225E-15, 49.70000000000000284 ) ) ;
#6 = ORIENTED_EDGE ( 'NONE', *, *, #197, .F. ) ;
#7 = AXIS2_PLACEMENT_3D ( 'NONE', #252, #183, #273 ) ;
#8 = DIRECTION ( 'NONE',  ( 4.054589356604711069E-31, 1.000000000000000000, 1.141265444721584744E-16 ) ) ;
#9 = CARTESIAN_POINT ( 'NONE',  ( 2.793185071074506684E-14, 7.123858967643809953E-33, 8.000000000000000000 ) ) ;
#10 = CARTESIAN_POINT ( 'NONE',  ( 0.0000000000000000000, 0.8056624327025948551, 0.0000000000000000000 ) ) ;
#11 = MANIFOLD_SOLID_BREP ( 'Corps-Déplacer/Copier1[1]', #131 ) ;
#12 = CARTESIAN_POINT ( 'NONE',  ( 2.793185071074506684E-14, -9.797174393178825657E-16, 8.000000000000000000 ) ) ;
#13 = FACE_OUTER_BOUND ( 'NONE', #242, .T. ) ;
#14 = CARTESIAN_POINT ( 'NONE',  ( 6.056776150402963091E-14, 0.8803844939755723908, 17.34729635533384595 ) ) ;
#15 = DIRECTION ( 'NONE',  ( 3.491481338843133355E-15, -1.224646799147353207E-16, 1.000000000000000000 ) ) ;
#16 = MANIFOLD_SOLID_BREP ( 'Corps-Déplacer/Copier1[2]', #126 ) ;
#17 = PERSON_AND_ORGANIZATION ( #65, #98 ) ;
#18 = ADVANCED_FACE ( 'NONE', ( #77, #196 ), #179, .T. ) ;
#19 = APPROVAL_ROLE ( '' ) ;
#20 = APPLICATION_CONTEXT ( 'configuration controlled 3d designs of mechanical parts and assemblies' ) ;
#21 = CIRCLE ( 'NONE', #150, 0.9499999999999999556 ) ;
#22 = CC_DESIGN_APPROVAL ( #147, ( #210 ) ) ;
#23 = PERSON_AND_ORGANIZATION ( #65, #98 ) ;
#24 = PRODUCT_DEFINITION_SHAPE ( 'NONE', 'NONE',  #210 ) ;
#25 = AXIS2_PLACEMENT_3D ( 'NONE', #109, #294, #116 ) ;
#26 = COORDINATED_UNIVERSAL_TIME_OFFSET ( 1, 0, .AHEAD. ) ;
#27 = CARTESIAN_POINT ( 'NONE',  ( 0.0000000000000000000, 0.0000000000000000000, 0.0000000000000000000 ) ) ;
#28 = DIRECTION ( 'NONE',  ( -3.491481338843133355E-15, 1.224646799147353207E-16, -1.000000000000000000 ) ) ;
#29 = DIRECTION ( 'NONE',  ( 4.275831445896958607E-31, 1.000000000000000000, 1.224646799147353454E-16 ) ) ;
#30 = CC_DESIGN_PERSON_AND_ORGANIZATION_ASSIGNMENT ( #17, #275, ( #210 ) ) ;
#31 = CARTESIAN_POINT ( 'NONE',  ( 2.793185071074506684E-14, -9.797174393178825657E-16, 8.000000000000000000 ) ) ;
#32 = EDGE_CURVE ( 'NONE', #41, #41, #63, .T. ) ;
#33 = DIRECTION ( 'NONE',  ( -3.491481338843133355E-15, 1.224646799147353207E-16, -1.000000000000000000 ) ) ;
#34 = PLANE ( 'NONE',  #104 ) ;
#35 = EDGE_LOOP ( 'NONE', ( #53 ) ) ;
#36 = AXIS2_PLACEMENT_3D ( 'NONE', #9, #107, #237 ) ;
#37 = VERTEX_POINT ( 'NONE', #180 ) ;
#38 = DIRECTION ( 'NONE',  ( 0.0000000000000000000, 1.000000000000000000, 0.0000000000000000000 ) ) ;
#39 =( NAMED_UNIT ( * ) PLANE_ANGLE_UNIT ( ) SI_UNIT ( $, .RADIAN. ) );
#40 = APPROVAL_PERSON_ORGANIZATION ( #283, #110, #1 ) ;
#41 = VERTEX_POINT ( 'NONE', #10 ) ;
#42 = EDGE_LOOP ( 'NONE', ( #230 ) ) ;
#43 = COORDINATED_UNIVERSAL_TIME_OFFSET ( 1, 0, .AHEAD. ) ;
#44 = AXIS2_PLACEMENT_3D ( 'NONE', #288, #78, #191 ) ;
#45 = ORIENTED_EDGE ( 'NONE', *, *, #89, .F. ) ;
#46 = CALENDAR_DATE ( 2021, 1, 12 ) ;
#47 = CC_DESIGN_PERSON_AND_ORGANIZATION_ASSIGNMENT ( #207, #2, ( #162 ) ) ;
#48 = CIRCLE ( 'NONE', #118, 0.8499999999999937605 ) ;
#49 = LOCAL_TIME ( 15, 3, 44.00000000000000000, #43 ) ;
#50 = FACE_OUTER_BOUND ( 'NONE', #97, .T. ) ;
#51 = ADVANCED_BREP_SHAPE_REPRESENTATION ( '20079', ( #11, #16, #226 ), #282 ) ;
#52 = DIRECTION ( 'NONE',  ( -3.491481338843133355E-15, 1.224646799147353207E-16, -1.000000000000000000 ) ) ;
#53 = ORIENTED_EDGE ( 'NONE', *, *, #143, .T. ) ;
#54 = DIRECTION ( 'NONE',  ( -3.491481338843133355E-15, 1.224646799147353207E-16, -1.000000000000000000 ) ) ;
#55 = ORIENTED_EDGE ( 'NONE', *, *, #32, .T. ) ;
#56 = CIRCLE ( 'NONE', #303, 0.8499999999999947597 ) ;
#57 = DIRECTION ( 'NONE',  ( -3.491481338843133355E-15, 1.224646799147353207E-16, -1.000000000000000000 ) ) ;
#58 = EDGE_LOOP ( 'NONE', ( #146 ) ) ;
#59 = DIRECTION ( 'NONE',  ( -3.491481338843133355E-15, 1.224646799147353207E-16, -1.000000000000000000 ) ) ;
#60 = DIRECTION ( 'NONE',  ( -3.491481338843133355E-15, 1.224646799147353207E-16, -1.000000000000000000 ) ) ;
#61 = ADVANCED_FACE ( 'NONE', ( #172, #102 ), #161, .T. ) ;
#62 = CARTESIAN_POINT ( 'NONE',  ( 5.935518276033326704E-14, -2.168404344971008868E-15, 17.00000000000000000 ) ) ;
#63 = CIRCLE ( 'NONE', #185, 0.8056624327025948551 ) ;
#64 = CARTESIAN_POINT ( 'NONE',  ( 7.283687634879109062E-14, -2.554773714184990741E-15, 20.86131050980351276 ) ) ;
#65 = PERSON ( 'UNSPECIFIED', 'UNSPECIFIED', 'UNSPECIFIED', ('UNSPECIFIED'), ('UNSPECIFIED'), ('UNSPECIFIED') ) ;
#66 = CYLINDRICAL_SURFACE ( 'NONE', #25, 0.9499999999999995115 ) ;
#67 = ADVANCED_FACE ( 'NONE', ( #101 ), #148, .T. ) ;
#68 = PERSON_AND_ORGANIZATION ( #65, #98 ) ;
#69 = APPLICATION_PROTOCOL_DEFINITION ( 'international standard', 'config_control_design', 1994, #20 ) ;
#70 = PERSON_AND_ORGANIZATION_ROLE ( 'design_supplier' ) ;
#71 = COORDINATED_UNIVERSAL_TIME_OFFSET ( 1, 0, .AHEAD. ) ;
#72 = ORIENTED_EDGE ( 'NONE', *, *, #171, .T. ) ;
#73 = PERSON_AND_ORGANIZATION_ROLE ( 'classification_officer' ) ;
#74 = CARTESIAN_POINT ( 'NONE',  ( 2.853659301800060557E-14, -1.000928944092382267E-15, 8.173205080756900998 ) ) ;
#75 = CIRCLE ( 'NONE', #280, 1.500000000000001554 ) ;
#76 = CARTESIAN_POINT ( 'NONE',  ( 8.728703347107829444E-16, -3.061616997868381785E-17, 0.2499999999999998890 ) ) ;
#77 = FACE_BOUND ( 'NONE', #80, .T. ) ;
#78 = DIRECTION ( 'NONE',  ( -3.491481338843133355E-15, 1.224646799147353207E-16, -1.000000000000000000 ) ) ;
#79 = CONICAL_SURFACE ( 'NONE', #140, 1.499999999999996669, 0.1745329251994264530 ) ;
#80 = EDGE_LOOP ( 'NONE', ( #163 ) ) ;
#81 = LOCAL_TIME ( 15, 3, 44.00000000000000000, #71 ) ;
#82 = PLANE ( 'NONE',  #7 ) ;
#83 = CARTESIAN_POINT ( 'NONE',  ( -1.722438382263798691E-31, 6.041500574844335826E-33, -4.933259597012513584E-17 ) ) ;
#84 = VERTEX_POINT ( 'NONE', #247 ) ;
#85 = TOROIDAL_SURFACE ( 'NONE', #91, 2.849999999999994760, 2.000000000000000888 ) ;
#86 = ADVANCED_FACE ( 'NONE', ( #216, #213 ), #153, .T. ) ;
#87 = VERTEX_POINT ( 'NONE', #111 ) ;
#88 = FACE_OUTER_BOUND ( 'NONE', #289, .T. ) ;
#89 = EDGE_CURVE ( 'NONE', #177, #177, #113, .T. ) ;
#90 = APPLICATION_PROTOCOL_DEFINITION ( 'international standard', 'config_control_design', 1994, #223 ) ;
#91 = AXIS2_PLACEMENT_3D ( 'NONE', #62, #158, #156 ) ;
#92 = CC_DESIGN_APPROVAL ( #120, ( #290 ) ) ;
#93 = CC_DESIGN_DATE_AND_TIME_ASSIGNMENT ( #204, #295, ( #210 ) ) ;
#94 =( NAMED_UNIT ( * ) SI_UNIT ( $, .STERADIAN. ) SOLID_ANGLE_UNIT ( ) );
#95 = SECURITY_CLASSIFICATION_LEVEL ( 'unclassified' ) ;
#96 = EDGE_LOOP ( 'NONE', ( #287 ) ) ;
#97 = EDGE_LOOP ( 'NONE', ( #271 ) ) ;
#98 = ORGANIZATION ( 'UNSPECIFIED', 'UNSPECIFIED', '' ) ;
#99 = PERSON_AND_ORGANIZATION ( #65, #98 ) ;
#100 = ORIENTED_EDGE ( 'NONE', *, *, #152, .F. ) ;
#101 = FACE_OUTER_BOUND ( 'NONE', #42, .T. ) ;
#102 = FACE_BOUND ( 'NONE', #215, .T. ) ;
#103 = ORIENTED_EDGE ( 'NONE', *, *, #166, .T. ) ;
#104 = AXIS2_PLACEMENT_3D ( 'NONE', #83, #15, #291 ) ;
#105 = EDGE_LOOP ( 'NONE', ( #6 ) ) ;
#106 = FACE_OUTER_BOUND ( 'NONE', #193, .T. ) ;
#107 = DIRECTION ( 'NONE',  ( 3.491481338843133355E-15, -1.224646799147353207E-16, 1.000000000000000000 ) ) ;
#108 = AXIS2_PLACEMENT_3D ( 'NONE', #175, #195, #149 ) ;
#109 = CARTESIAN_POINT ( 'NONE',  ( 0.0000000000000000000, 0.0000000000000000000, 0.0000000000000000000 ) ) ;
#110 = APPROVAL ( #302, 'UNSPECIFIED' ) ;
#111 = CARTESIAN_POINT ( 'NONE',  ( 5.935518276033326704E-14, 0.8499999999999926503, 17.00000000000000000 ) ) ;
#112 = CARTESIAN_POINT ( 'NONE',  ( 8.728703347107833388E-16, 0.9499999999999990674, 0.2500000000000000000 ) ) ;
#113 = CIRCLE ( 'NONE', #144, 0.9499999999999990674 ) ;
#114 = CIRCLE ( 'NONE', #240, 0.9499999999999999556 ) ;
#115 = ADVANCED_FACE ( 'NONE', ( #106 ), #3, .F. ) ;
#116 = DIRECTION ( 'NONE',  ( 4.275831445896957731E-31, 1.000000000000000000, 1.224646799147353207E-16 ) ) ;
#117 = APPROVAL_ROLE ( '' ) ;
#118 = AXIS2_PLACEMENT_3D ( 'NONE', #74, #28, #169 ) ;
#119 = COORDINATED_UNIVERSAL_TIME_OFFSET ( 1, 0, .AHEAD. ) ;
#120 = APPROVAL ( #164, 'UNSPECIFIED' ) ;
#121 = CALENDAR_DATE ( 2021, 1, 12 ) ;
#122 = APPROVAL_DATE_TIME ( #211, #120 ) ;
#123 = CARTESIAN_POINT ( 'NONE',  ( -3.444876764527597382E-31, 1.208300114968867165E-32, -9.866519194025027168E-17 ) ) ;
#124 = CC_DESIGN_PERSON_AND_ORGANIZATION_ASSIGNMENT ( #23, #70, ( #162 ) ) ;
#125 = DIRECTION ( 'NONE',  ( -3.491481338843133355E-15, 1.224646799147353207E-16, -1.000000000000000000 ) ) ;
#126 = CLOSED_SHELL ( 'NONE', ( #238, #18, #267, #67 ) ) ;
#127 = DIRECTION ( 'NONE',  ( 4.275831445896958607E-31, 1.000000000000000000, 1.224646799147353207E-16 ) ) ;
#128 = DIRECTION ( 'NONE',  ( 0.0000000000000000000, 1.000000000000000000, 0.0000000000000000000 ) ) ;
#129 = EDGE_CURVE ( 'NONE', #200, #200, #206, .T. ) ;
#130 = DIRECTION ( 'NONE',  ( -3.491481338843133355E-15, 1.224646799147353207E-16, -1.000000000000000000 ) ) ;
#131 = CLOSED_SHELL ( 'NONE', ( #296, #61, #176, #272, #249, #86, #160, #115 ) ) ;
#132 = FACE_OUTER_BOUND ( 'NONE', #189, .T. ) ;
#133 = FACE_OUTER_BOUND ( 'NONE', #222, .T. ) ;
#134 = CARTESIAN_POINT ( 'NONE',  ( 2.853659301800060557E-14, 0.8499999999999927613, 8.173205080756900998 ) ) ;
#135 = VERTEX_POINT ( 'NONE', #134 ) ;
#136 = LOCAL_TIME ( 15, 3, 44.00000000000000000, #119 ) ;
#137 = DIRECTION ( 'NONE',  ( -3.491481338843133355E-15, 1.224646799147353207E-16, -1.000000000000000000 ) ) ;
#138 = DIRECTION ( 'NONE',  ( 0.0000000000000000000, 0.0000000000000000000, 1.000000000000000000 ) ) ;
#139 = EDGE_LOOP ( 'NONE', ( #72 ) ) ;
#140 = AXIS2_PLACEMENT_3D ( 'NONE', #64, #221, #203 ) ;
#141 = ORIENTED_EDGE ( 'NONE', *, *, #225, .T. ) ;
#142 = DATE_AND_TIME ( #46, #81 ) ;
#143 = EDGE_CURVE ( 'NONE', #268, #268, #75, .T. ) ;
#144 = AXIS2_PLACEMENT_3D ( 'NONE', #76, #173, #8 ) ;
#145 = CYLINDRICAL_SURFACE ( 'NONE', #250, 0.8499999999999942046 ) ;
#146 = ORIENTED_EDGE ( 'NONE', *, *, #89, .T. ) ;
#147 = APPROVAL ( #184, 'UNSPECIFIED' ) ;
#148 = PLANE ( 'NONE',  #36 ) ;
#149 = DIRECTION ( 'NONE',  ( -4.054589356604711069E-31, -1.000000000000000000, -1.141265444721584744E-16 ) ) ;
#150 = AXIS2_PLACEMENT_3D ( 'NONE', #12, #60, #270 ) ;
#151 = FACE_OUTER_BOUND ( 'NONE', #279, .T. ) ;
#152 = EDGE_CURVE ( 'NONE', #87, #87, #56, .T. ) ;
#153 = CYLINDRICAL_SURFACE ( 'NONE', #159, 1.499999999999999112 ) ;
#154 = FACE_OUTER_BOUND ( 'NONE', #96, .T. ) ;
#155 = CARTESIAN_POINT ( 'NONE',  ( 2.793185071074506684E-14, 0.9499999999999990674, 8.000000000000000000 ) ) ;
#156 = DIRECTION ( 'NONE',  ( 4.275831445896958607E-31, 1.000000000000000000, 1.224646799147353207E-16 ) ) ;
#157 = CARTESIAN_POINT ( 'NONE',  ( 6.056776150402963091E-14, -2.124431095542013992E-15, 17.34729635533384595 ) ) ;
#158 = DIRECTION ( 'NONE',  ( -3.491481338843133355E-15, 1.224646799147353207E-16, -1.000000000000000000 ) ) ;
#159 = AXIS2_PLACEMENT_3D ( 'NONE', #266, #59, #29 ) ;
#160 = ADVANCED_FACE ( 'NONE', ( #151, #286 ), #233, .T. ) ;
#161 = CONICAL_SURFACE ( 'NONE', #297, 0.8499999999999937605, 0.5235987755982942637 ) ;
#162 = PRODUCT_DEFINITION_FORMATION_WITH_SPECIFIED_SOURCE ( 'ANY', '', #168, .NOT_KNOWN. ) ;
#163 = ORIENTED_EDGE ( 'NONE', *, *, #32, .F. ) ;
#164 = APPROVAL_STATUS ( 'not_yet_approved' ) ;
#165 = EDGE_LOOP ( 'NONE', ( #259 ) ) ;
#166 = EDGE_CURVE ( 'NONE', #135, #135, #48, .T. ) ;
#167 = SHAPE_DEFINITION_REPRESENTATION ( #24, #51 ) ;
#168 = PRODUCT ( '20079', '20079', '', ( #276 ) ) ;
#169 = DIRECTION ( 'NONE',  ( 0.0000000000000000000, 1.000000000000000000, 0.0000000000000000000 ) ) ;
#170 = AXIS2_PLACEMENT_3D ( 'NONE', #292, #198, #244 ) ;
#171 = EDGE_CURVE ( 'NONE', #178, #178, #114, .T. ) ;
#172 = FACE_OUTER_BOUND ( 'NONE', #105, .T. ) ;
#173 = DIRECTION ( 'NONE',  ( -3.491481338843133355E-15, 1.224646799147353207E-16, -1.000000000000000000 ) ) ;
#174 = DIRECTION ( 'NONE',  ( 0.0000000000000000000, 1.000000000000000000, 0.0000000000000000000 ) ) ;
#175 = CARTESIAN_POINT ( 'NONE',  ( 8.728703347107829444E-16, -3.061616997868381785E-17, 0.2499999999999998890 ) ) ;
#176 = ADVANCED_FACE ( 'NONE', ( #260, #50 ), #145, .T. ) ;
#177 = VERTEX_POINT ( 'NONE', #112 ) ;
#178 = VERTEX_POINT ( 'NONE', #155 ) ;
#179 = CONICAL_SURFACE ( 'NONE', #108, 0.9499999999999990674, 0.5235987755982920433 ) ;
#180 = CARTESIAN_POINT ( 'NONE',  ( 1.745740669421566678E-13, 1.199999999999995515, 50.00000000000000000 ) ) ;
#181 = LOCAL_TIME ( 15, 3, 44.00000000000000000, #254 ) ;
#182 =( LENGTH_UNIT ( ) NAMED_UNIT ( * ) SI_UNIT ( .MILLI., .METRE. ) );
#183 = DIRECTION ( 'NONE',  ( 3.491481338843133355E-15, -1.224646799147353207E-16, 1.000000000000000000 ) ) ;
#184 = APPROVAL_STATUS ( 'not_yet_approved' ) ;
#185 = AXIS2_PLACEMENT_3D ( 'NONE', #123, #54, #127 ) ;
#186 = CC_DESIGN_APPROVAL ( #110, ( #162 ) ) ;
#187 = CARTESIAN_POINT ( 'NONE',  ( 0.0000000000000000000, 0.0000000000000000000, 0.0000000000000000000 ) ) ;
#188 = CALENDAR_DATE ( 2021, 1, 12 ) ;
#189 = EDGE_LOOP ( 'NONE', ( #100 ) ) ;
#190 = CARTESIAN_POINT ( 'NONE',  ( 5.935518276033326704E-14, -2.081899558550500280E-15, 17.00000000000000000 ) ) ;
#191 = DIRECTION ( 'NONE',  ( 4.275831445896958607E-31, 1.000000000000000000, 1.224646799147353207E-16 ) ) ;
#192 = CIRCLE ( 'NONE', #170, 1.200000000000001732 ) ;
#193 = EDGE_LOOP ( 'NONE', ( #264 ) ) ;
#194 = CC_DESIGN_PERSON_AND_ORGANIZATION_ASSIGNMENT ( #277, #231, ( #168 ) ) ;
#195 = DIRECTION ( 'NONE',  ( 3.491481338843133355E-15, -1.224646799147353207E-16, 1.000000000000000000 ) ) ;
#196 = FACE_OUTER_BOUND ( 'NONE', #58, .T. ) ;
#197 = EDGE_CURVE ( 'NONE', #84, #84, #21, .T. ) ;
#198 = DIRECTION ( 'NONE',  ( -3.491481338843133355E-15, 1.224646799147353207E-16, -1.000000000000000000 ) ) ;
#199 = DIRECTION ( 'NONE',  ( -3.491481338843133355E-15, 1.224646799147353207E-16, -1.000000000000000000 ) ) ;
#200 = VERTEX_POINT ( 'NONE', #220 ) ;
#201 = AXIS2_PLACEMENT_3D ( 'NONE', #218, #33, #243 ) ;
#202 = FACE_OUTER_BOUND ( 'NONE', #228, .T. ) ;
#203 = DIRECTION ( 'NONE',  ( 0.0000000000000000000, -1.000000000000000000, 0.0000000000000000000 ) ) ;
#204 = DATE_AND_TIME ( #232, #49 ) ;
#205 = DIRECTION ( 'NONE',  ( 1.000000000000000000, 0.0000000000000000000, 0.0000000000000000000 ) ) ;
#206 = CIRCLE ( 'NONE', #201, 1.499999999999996669 ) ;
#207 = PERSON_AND_ORGANIZATION ( #65, #98 ) ;
#208 = DATE_TIME_ROLE ( 'classification_date' ) ;
#209 = EDGE_LOOP ( 'NONE', ( #263 ) ) ;
#210 = PRODUCT_DEFINITION ( 'UNKNOWN', '', #162, #255 ) ;
#211 = DATE_AND_TIME ( #121, #269 ) ;
#212 = EDGE_CURVE ( 'NONE', #37, #37, #192, .T. ) ;
#213 = FACE_OUTER_BOUND ( 'NONE', #35, .T. ) ;
#214 = DIRECTION ( 'NONE',  ( 0.0000000000000000000, 1.000000000000000000, 0.0000000000000000000 ) ) ;
#215 = EDGE_LOOP ( 'NONE', ( #103 ) ) ;
#216 = FACE_OUTER_BOUND ( 'NONE', #258, .T. ) ;
#217 = ORIENTED_EDGE ( 'NONE', *, *, #197, .T. ) ;
#218 = CARTESIAN_POINT ( 'NONE',  ( 7.283687634879109062E-14, -2.554773714184990741E-15, 20.86131050980351276 ) ) ;
#219 = AXIS2_PLACEMENT_3D ( 'NONE', #157, #137, #38 ) ;
#220 = CARTESIAN_POINT ( 'NONE',  ( 7.283687634879109062E-14, 1.499999999999994005, 20.86131050980351276 ) ) ;
#221 = DIRECTION ( 'NONE',  ( 3.491481338843133355E-15, -1.224646799147353207E-16, 1.000000000000000000 ) ) ;
#222 = EDGE_LOOP ( 'NONE', ( #55 ) ) ;
#223 = APPLICATION_CONTEXT ( 'configuration controlled 3d designs of mechanical parts and assemblies' ) ;
#224 = VERTEX_POINT ( 'NONE', #14 ) ;
#225 = EDGE_CURVE ( 'NONE', #224, #224, #274, .T. ) ;
#226 = AXIS2_PLACEMENT_3D ( 'NONE', #187, #138, #205 ) ;
#227 = DIRECTION ( 'NONE',  ( 4.275831445896958607E-31, 1.000000000000000000, 1.224646799147353207E-16 ) ) ;
#228 = EDGE_LOOP ( 'NONE', ( #217 ) ) ;
#229 = DATE_AND_TIME ( #253, #136 ) ;
#230 = ORIENTED_EDGE ( 'NONE', *, *, #171, .F. ) ;
#231 = PERSON_AND_ORGANIZATION_ROLE ( 'design_owner' ) ;
#232 = CALENDAR_DATE ( 2021, 1, 12 ) ;
#233 = CONICAL_SURFACE ( 'NONE', #245, 1.200000000000001732, 0.7853981633974453924 ) ;
#234 = UNCERTAINTY_MEASURE_WITH_UNIT (LENGTH_MEASURE( 1.000000000000000082E-05 ), #182, 'distance_accuracy_value', 'NONE');
#235 = ORIENTED_EDGE ( 'NONE', *, *, #129, .F. ) ;
#236 = CARTESIAN_POINT ( 'NONE',  ( 1.745740669421566678E-13, -6.123233995736766085E-15, 50.00000000000000000 ) ) ;
#237 = DIRECTION ( 'NONE',  ( -4.275831445896958607E-31, -1.000000000000000000, -1.224646799147353207E-16 ) ) ;
#238 = ADVANCED_FACE ( 'NONE', ( #133 ), #34, .F. ) ;
#239 = CARTESIAN_POINT ( 'NONE',  ( 2.853659301800060557E-14, -1.000928944092382267E-15, 8.173205080756900998 ) ) ;
#240 = AXIS2_PLACEMENT_3D ( 'NONE', #31, #125, #128 ) ;
#241 = DIRECTION ( 'NONE',  ( -3.491481338843133355E-15, 1.224646799147353207E-16, -1.000000000000000000 ) ) ;
#242 = EDGE_LOOP ( 'NONE', ( #45 ) ) ;
#243 = DIRECTION ( 'NONE',  ( 0.0000000000000000000, 1.000000000000000000, 0.0000000000000000000 ) ) ;
#244 = DIRECTION ( 'NONE',  ( 0.0000000000000000000, 1.000000000000000000, 0.0000000000000000000 ) ) ;
#245 = AXIS2_PLACEMENT_3D ( 'NONE', #236, #241, #284 ) ;
#246 = FACE_BOUND ( 'NONE', #209, .T. ) ;
#247 = CARTESIAN_POINT ( 'NONE',  ( 2.793185071074506684E-14, 0.9499999999999990674, 8.000000000000000000 ) ) ;
#248 = FACE_OUTER_BOUND ( 'NONE', #139, .T. ) ;
#249 = ADVANCED_FACE ( 'NONE', ( #246, #154 ), #79, .T. ) ;
#250 = AXIS2_PLACEMENT_3D ( 'NONE', #27, #199, #227 ) ;
#251 = CC_DESIGN_SECURITY_CLASSIFICATION ( #290, ( #162 ) ) ;
#252 = CARTESIAN_POINT ( 'NONE',  ( 2.793185071074506684E-14, 7.123858967643809953E-33, 8.000000000000000000 ) ) ;
#253 = CALENDAR_DATE ( 2021, 1, 12 ) ;
#254 = COORDINATED_UNIVERSAL_TIME_OFFSET ( 1, 0, .AHEAD. ) ;
#255 = DESIGN_CONTEXT ( 'detailed design', #20, 'design' ) ;
#256 = ORIENTED_EDGE ( 'NONE', *, *, #143, .F. ) ;
#257 = PRODUCT_RELATED_PRODUCT_CATEGORY ( 'detail', '', ( #168 ) ) ;
#258 = EDGE_LOOP ( 'NONE', ( #235 ) ) ;
#259 = ORIENTED_EDGE ( 'NONE', *, *, #212, .T. ) ;
#260 = FACE_OUTER_BOUND ( 'NONE', #285, .T. ) ;
#261 = CC_DESIGN_DATE_AND_TIME_ASSIGNMENT ( #300, #208, ( #290 ) ) ;
#262 = DIRECTION ( 'NONE',  ( 0.0000000000000000000, 1.000000000000000000, 0.0000000000000000000 ) ) ;
#263 = ORIENTED_EDGE ( 'NONE', *, *, #225, .F. ) ;
#264 = ORIENTED_EDGE ( 'NONE', *, *, #212, .F. ) ;
#265 = APPROVAL_PERSON_ORGANIZATION ( #68, #147, #117 ) ;
#266 = CARTESIAN_POINT ( 'NONE',  ( 0.0000000000000000000, 0.0000000000000000000, 0.0000000000000000000 ) ) ;
#267 = ADVANCED_FACE ( 'NONE', ( #13, #248 ), #66, .T. ) ;
#268 = VERTEX_POINT ( 'NONE', #293 ) ;
#269 = LOCAL_TIME ( 15, 3, 44.00000000000000000, #26 ) ;
#270 = DIRECTION ( 'NONE',  ( 0.0000000000000000000, 1.000000000000000000, 0.0000000000000000000 ) ) ;
#271 = ORIENTED_EDGE ( 'NONE', *, *, #152, .T. ) ;
#272 = ADVANCED_FACE ( 'NONE', ( #132, #88 ), #85, .F. ) ;
#273 = DIRECTION ( 'NONE',  ( -4.275831445896958607E-31, -1.000000000000000000, -1.224646799147353207E-16 ) ) ;
#274 = CIRCLE ( 'NONE', #219, 0.8803844939755745003 ) ;
#275 = PERSON_AND_ORGANIZATION_ROLE ( 'creator' ) ;
#276 = MECHANICAL_CONTEXT ( 'NONE', #223, 'mechanical' ) ;
#277 = PERSON_AND_ORGANIZATION ( #65, #98 ) ;
#278 = PERSON_AND_ORGANIZATION ( #65, #98 ) ;
#279 = EDGE_LOOP ( 'NONE', ( #256 ) ) ;
#280 = AXIS2_PLACEMENT_3D ( 'NONE', #5, #130, #174 ) ;
#281 = CC_DESIGN_PERSON_AND_ORGANIZATION_ASSIGNMENT ( #99, #73, ( #290 ) ) ;
#282 =( GEOMETRIC_REPRESENTATION_CONTEXT ( 3 ) GLOBAL_UNCERTAINTY_ASSIGNED_CONTEXT ( ( #234 ) ) GLOBAL_UNIT_ASSIGNED_CONTEXT ( ( #182, #39, #94 ) ) REPRESENTATION_CONTEXT ( 'NONE', 'WORKASPACE' ) );
#283 = PERSON_AND_ORGANIZATION ( #65, #98 ) ;
#284 = DIRECTION ( 'NONE',  ( 0.0000000000000000000, 1.000000000000000000, 0.0000000000000000000 ) ) ;
#285 = EDGE_LOOP ( 'NONE', ( #4 ) ) ;
#286 = FACE_BOUND ( 'NONE', #165, .T. ) ;
#287 = ORIENTED_EDGE ( 'NONE', *, *, #129, .T. ) ;
#288 = CARTESIAN_POINT ( 'NONE',  ( 1.745740669421566678E-13, 8.998558695971067645E-33, 50.00000000000000000 ) ) ;
#289 = EDGE_LOOP ( 'NONE', ( #141 ) ) ;
#290 = SECURITY_CLASSIFICATION ( '', '', #95 ) ;
#291 = DIRECTION ( 'NONE',  ( -4.275831445896958607E-31, -1.000000000000000000, -1.224646799147353207E-16 ) ) ;
#292 = CARTESIAN_POINT ( 'NONE',  ( 1.745740669421566678E-13, -6.123233995736766085E-15, 50.00000000000000000 ) ) ;
#293 = CARTESIAN_POINT ( 'NONE',  ( 1.735266225405037467E-13, 1.499999999999995559, 49.70000000000000284 ) ) ;
#294 = DIRECTION ( 'NONE',  ( -3.491481338843133355E-15, 1.224646799147353207E-16, -1.000000000000000000 ) ) ;
#295 = DATE_TIME_ROLE ( 'creation_date' ) ;
#296 = ADVANCED_FACE ( 'NONE', ( #202 ), #82, .F. ) ;
#297 = AXIS2_PLACEMENT_3D ( 'NONE', #239, #52, #214 ) ;
#298 = APPROVAL_PERSON_ORGANIZATION ( #278, #120, #19 ) ;
#299 = APPROVAL_DATE_TIME ( #229, #147 ) ;
#300 = DATE_AND_TIME ( #188, #181 ) ;
#301 = APPROVAL_DATE_TIME ( #142, #110 ) ;
#302 = APPROVAL_STATUS ( 'not_yet_approved' ) ;
#303 = AXIS2_PLACEMENT_3D ( 'NONE', #190, #57, #262 ) ;
ENDSEC;
END-ISO-10303-21;
