ISO-10303-21;
HEADER;
FILE_DESCRIPTION (( 'STEP AP203' ),
    '1' );
FILE_NAME ('200789.step',
    '2021-12-01T14:03:43',
    ( '' ),
    ( '' ),
    'SwSTEP 2.0',
    'SolidWorks 2019',
    '' );
FILE_SCHEMA (( 'CONFIG_CONTROL_DESIGN' ));
ENDSEC;

DATA;
#1 = AXIS2_PLACEMENT_3D ( 'NONE', #65, #152, #268 ) ;
#2 = DIRECTION ( 'NONE',  ( 4.275831445896957731E-31, 1.000000000000000000, 1.224646799147353207E-16 ) ) ;
#3 = ADVANCED_FACE ( 'NONE', ( #255 ), #113, .F. ) ;
#4 = DIRECTION ( 'NONE',  ( 0.0000000000000000000, 1.000000000000000000, 0.0000000000000000000 ) ) ;
#5 = CYLINDRICAL_SURFACE ( 'NONE', #247, 0.8349999999999996314 ) ;
#6 = CARTESIAN_POINT ( 'NONE',  ( 1.745740669421566678E-13, 1.199999999999995515, 50.00000000000000000 ) ) ;
#7 = PLANE ( 'NONE',  #1 ) ;
#8 = CARTESIAN_POINT ( 'NONE',  ( 2.793185071074506684E-14, -9.797174393178825657E-16, 8.000000000000000000 ) ) ;
#9 = EDGE_LOOP ( 'NONE', ( #45 ) ) ;
#10 = DIRECTION ( 'NONE',  ( -3.491481338843133355E-15, 1.224646799147353207E-16, -1.000000000000000000 ) ) ;
#11 = EDGE_LOOP ( 'NONE', ( #167 ) ) ;
#12 = AXIS2_PLACEMENT_3D ( 'NONE', #210, #62, #215 ) ;
#13 = FACE_OUTER_BOUND ( 'NONE', #84, .T. ) ;
#14 = APPLICATION_PROTOCOL_DEFINITION ( 'international standard', 'config_control_design', 1994, #259 ) ;
#15 = FACE_OUTER_BOUND ( 'NONE', #37, .T. ) ;
#16 = APPROVAL_STATUS ( 'not_yet_approved' ) ;
#17 = CC_DESIGN_APPROVAL ( #39, ( #48 ) ) ;
#18 = AXIS2_PLACEMENT_3D ( 'NONE', #63, #211, #4 ) ;
#19 = ADVANCED_FACE ( 'NONE', ( #216, #261 ), #87, .T. ) ;
#20 = MANIFOLD_SOLID_BREP ( 'Corps-Déplacer/Copier1[1]', #35 ) ;
#21 = ORIENTED_EDGE ( 'NONE', *, *, #67, .T. ) ;
#22 = DATE_AND_TIME ( #277, #116 ) ;
#23 = AXIS2_PLACEMENT_3D ( 'NONE', #82, #111, #149 ) ;
#24 = ADVANCED_FACE ( 'NONE', ( #190, #241 ), #101, .T. ) ;
#25 = FACE_OUTER_BOUND ( 'NONE', #38, .T. ) ;
#26 = CARTESIAN_POINT ( 'NONE',  ( 0.0000000000000000000, 0.0000000000000000000, 0.0000000000000000000 ) ) ;
#27 = PLANE ( 'NONE',  #41 ) ;
#28 = EDGE_CURVE ( 'NONE', #40, #40, #287, .T. ) ;
#29 =( GEOMETRIC_REPRESENTATION_CONTEXT ( 3 ) GLOBAL_UNCERTAINTY_ASSIGNED_CONTEXT ( ( #202 ) ) GLOBAL_UNIT_ASSIGNED_CONTEXT ( ( #270, #74, #139 ) ) REPRESENTATION_CONTEXT ( 'NONE', 'WORKASPACE' ) );
#30 = TOROIDAL_SURFACE ( 'NONE', #192, 2.835000000000000409, 2.000000000000000000 ) ;
#31 = DIRECTION ( 'NONE',  ( -3.910517653578147403E-31, -1.000000000000000000, -1.100712865467518188E-16 ) ) ;
#32 = CARTESIAN_POINT ( 'NONE',  ( 7.662537530724186338E-14, -2.687656369790909100E-15, 21.94637973709775025 ) ) ;
#33 = ORIENTED_EDGE ( 'NONE', *, *, #236, .T. ) ;
#34 = CC_DESIGN_SECURITY_CLASSIFICATION ( #48, ( #127 ) ) ;
#35 = CLOSED_SHELL ( 'NONE', ( #3, #204, #114, #97, #24, #213, #234, #170 ) ) ;
#36 = DIRECTION ( 'NONE',  ( -3.491481338843133355E-15, 1.224646799147353207E-16, -1.000000000000000000 ) ) ;
#37 = EDGE_LOOP ( 'NONE', ( #99 ) ) ;
#38 = EDGE_LOOP ( 'NONE', ( #134 ) ) ;
#39 = APPROVAL ( #16, 'UNSPECIFIED' ) ;
#40 = VERTEX_POINT ( 'NONE', #140 ) ;
#41 = AXIS2_PLACEMENT_3D ( 'NONE', #44, #302, #90 ) ;
#42 = PERSON_AND_ORGANIZATION ( #198, #119 ) ;
#43 = DATE_TIME_ROLE ( 'classification_date' ) ;
#44 = CARTESIAN_POINT ( 'NONE',  ( 1.745740669421566678E-13, 8.998558695971067645E-33, 50.00000000000000000 ) ) ;
#45 = ORIENTED_EDGE ( 'NONE', *, *, #221, .T. ) ;
#46 = DIRECTION ( 'NONE',  ( 0.0000000000000000000, 1.000000000000000000, 0.0000000000000000000 ) ) ;
#47 = APPROVAL ( #88, 'UNSPECIFIED' ) ;
#48 = SECURITY_CLASSIFICATION ( '', '', #118 ) ;
#49 = PERSON_AND_ORGANIZATION ( #198, #119 ) ;
#50 = CALENDAR_DATE ( 2021, 1, 12 ) ;
#51 = ORIENTED_EDGE ( 'NONE', *, *, #122, .T. ) ;
#52 = APPROVAL_DATE_TIME ( #208, #39 ) ;
#53 = LOCAL_TIME ( 15, 3, 43.00000000000000000, #199 ) ;
#54 = DESIGN_CONTEXT ( 'detailed design', #259, 'design' ) ;
#55 = DIRECTION ( 'NONE',  ( -3.491481338843133355E-15, 1.224646799147353207E-16, -1.000000000000000000 ) ) ;
#56 = VERTEX_POINT ( 'NONE', #64 ) ;
#57 = FACE_OUTER_BOUND ( 'NONE', #217, .T. ) ;
#58 = EDGE_CURVE ( 'NONE', #280, #280, #157, .T. ) ;
#59 = DIRECTION ( 'NONE',  ( 4.275831445896958607E-31, 1.000000000000000000, 1.224646799147353207E-16 ) ) ;
#60 = AXIS2_PLACEMENT_3D ( 'NONE', #148, #223, #285 ) ;
#61 = FACE_OUTER_BOUND ( 'NONE', #9, .T. ) ;
#62 = DIRECTION ( 'NONE',  ( -3.491481338843133355E-15, 1.224646799147353207E-16, -1.000000000000000000 ) ) ;
#63 = CARTESIAN_POINT ( 'NONE',  ( 2.883896417162831814E-14, -1.011534696479630145E-15, 8.259807621135335509 ) ) ;
#64 = CARTESIAN_POINT ( 'NONE',  ( 1.892735826383161137E-31, 0.8406624327025947752, 5.421010862427522170E-17 ) ) ;
#65 = CARTESIAN_POINT ( 'NONE',  ( -8.508975193754145126E-32, 2.984546736402711450E-33, -2.437067355649538528E-17 ) ) ;
#66 = VERTEX_POINT ( 'NONE', #231 ) ;
#67 = EDGE_CURVE ( 'NONE', #237, #237, #264, .T. ) ;
#68 = ORIENTED_EDGE ( 'NONE', *, *, #291, .T. ) ;
#69 = APPROVAL_DATE_TIME ( #273, #275 ) ;
#70 = CONICAL_SURFACE ( 'NONE', #150, 1.200000000000001732, 0.7853981633974453924 ) ;
#71 = AXIS2_PLACEMENT_3D ( 'NONE', #289, #293, #83 ) ;
#72 = PERSON_AND_ORGANIZATION_ROLE ( 'creator' ) ;
#73 = VERTEX_POINT ( 'NONE', #301 ) ;
#74 =( NAMED_UNIT ( * ) PLANE_ANGLE_UNIT ( ) SI_UNIT ( $, .RADIAN. ) );
#75 = CALENDAR_DATE ( 2021, 1, 12 ) ;
#76 = DIRECTION ( 'NONE',  ( -3.491481338843133355E-15, 1.224646799147353207E-16, -1.000000000000000000 ) ) ;
#77 = AXIS2_PLACEMENT_3D ( 'NONE', #169, #76, #184 ) ;
#78 = ADVANCED_FACE ( 'NONE', ( #265 ), #7, .F. ) ;
#79 = ORIENTED_EDGE ( 'NONE', *, *, #67, .F. ) ;
#80 = ORIENTED_EDGE ( 'NONE', *, *, #221, .F. ) ;
#81 = DIRECTION ( 'NONE',  ( -3.491481338843133355E-15, 1.224646799147353207E-16, -1.000000000000000000 ) ) ;
#82 = CARTESIAN_POINT ( 'NONE',  ( 6.405924284287275164E-14, -2.246895775456749140E-15, 18.34729635533384595 ) ) ;
#83 = DIRECTION ( 'NONE',  ( -4.275831445896958607E-31, -1.000000000000000000, -1.224646799147353207E-16 ) ) ;
#84 = EDGE_LOOP ( 'NONE', ( #80 ) ) ;
#85 = CC_DESIGN_DATE_AND_TIME_ASSIGNMENT ( #159, #43, ( #48 ) ) ;
#86 = FACE_OUTER_BOUND ( 'NONE', #271, .T. ) ;
#87 = CYLINDRICAL_SURFACE ( 'NONE', #60, 0.9849999999999997646 ) ;
#88 = APPROVAL_STATUS ( 'not_yet_approved' ) ;
#89 = CC_DESIGN_APPROVAL ( #47, ( #127 ) ) ;
#90 = DIRECTION ( 'NONE',  ( 4.275831445896958607E-31, 1.000000000000000000, 1.224646799147353207E-16 ) ) ;
#91 = APPROVAL_ROLE ( '' ) ;
#92 = APPLICATION_CONTEXT ( 'configuration controlled 3d designs of mechanical parts and assemblies' ) ;
#93 = CC_DESIGN_PERSON_AND_ORGANIZATION_ASSIGNMENT ( #272, #226, ( #127 ) ) ;
#94 = CONICAL_SURFACE ( 'NONE', #258, 0.9849999999999990985, 0.5235987755982925984 ) ;
#95 = PLANE ( 'NONE',  #249 ) ;
#96 = CARTESIAN_POINT ( 'NONE',  ( 6.284666409917638777E-14, 0.8349999999999980771, 17.99999999999999645 ) ) ;
#97 = ADVANCED_FACE ( 'NONE', ( #13, #160 ), #30, .F. ) ;
#98 = CARTESIAN_POINT ( 'NONE',  ( 2.793185071074506684E-14, 7.386316929609635581E-33, 8.000000000000000000 ) ) ;
#99 = ORIENTED_EDGE ( 'NONE', *, *, #122, .F. ) ;
#100 = VERTEX_POINT ( 'NONE', #219 ) ;
#101 = CONICAL_SURFACE ( 'NONE', #151, 1.499999999999996669, 0.1745329251994261477 ) ;
#102 = FACE_BOUND ( 'NONE', #191, .T. ) ;
#103 = VERTEX_POINT ( 'NONE', #233 ) ;
#104 = CARTESIAN_POINT ( 'NONE',  ( 1.745740669421566678E-13, -6.123233995736766085E-15, 50.00000000000000000 ) ) ;
#105 = ORIENTED_EDGE ( 'NONE', *, *, #28, .F. ) ;
#106 = CARTESIAN_POINT ( 'NONE',  ( 7.662537530724186338E-14, -2.687656369790909100E-15, 21.94637973709775025 ) ) ;
#107 = FACE_OUTER_BOUND ( 'NONE', #266, .T. ) ;
#108 = EDGE_CURVE ( 'NONE', #56, #56, #239, .T. ) ;
#109 = CARTESIAN_POINT ( 'NONE',  ( 2.883896417162831814E-14, -1.011534696479630145E-15, 8.259807621135335509 ) ) ;
#110 = CARTESIAN_POINT ( 'NONE',  ( 0.0000000000000000000, 0.0000000000000000000, 0.0000000000000000000 ) ) ;
#111 = DIRECTION ( 'NONE',  ( -3.491481338843133355E-15, 1.224646799147353207E-16, -1.000000000000000000 ) ) ;
#112 = ORIENTED_EDGE ( 'NONE', *, *, #28, .T. ) ;
#113 = PLANE ( 'NONE',  #71 ) ;
#114 = ADVANCED_FACE ( 'NONE', ( #57, #61 ), #5, .T. ) ;
#115 = DIRECTION ( 'NONE',  ( 0.0000000000000000000, 1.000000000000000000, 0.0000000000000000000 ) ) ;
#116 = LOCAL_TIME ( 15, 3, 43.00000000000000000, #181 ) ;
#117 = ORIENTED_EDGE ( 'NONE', *, *, #291, .F. ) ;
#118 = SECURITY_CLASSIFICATION_LEVEL ( 'unclassified' ) ;
#119 = ORGANIZATION ( 'UNSPECIFIED', 'UNSPECIFIED', '' ) ;
#120 = AXIS2_PLACEMENT_3D ( 'NONE', #109, #282, #46 ) ;
#121 = APPROVAL_STATUS ( 'not_yet_approved' ) ;
#122 = EDGE_CURVE ( 'NONE', #100, #100, #300, .T. ) ;
#123 = APPLICATION_PROTOCOL_DEFINITION ( 'international standard', 'config_control_design', 1994, #92 ) ;
#124 = AXIS2_PLACEMENT_3D ( 'NONE', #207, #206, #143 ) ;
#125 = FACE_OUTER_BOUND ( 'NONE', #153, .T. ) ;
#126 = FACE_BOUND ( 'NONE', #177, .T. ) ;
#127 = PRODUCT_DEFINITION_FORMATION_WITH_SPECIFIED_SOURCE ( 'ANY', '', #278, .NOT_KNOWN. ) ;
#128 = MANIFOLD_SOLID_BREP ( 'Corps-Déplacer/Copier1[2]', #276 ) ;
#129 = DIRECTION ( 'NONE',  ( -4.275831445896958607E-31, -1.000000000000000000, -1.224646799147353207E-16 ) ) ;
#130 = DIRECTION ( 'NONE',  ( 0.0000000000000000000, -1.000000000000000000, 0.0000000000000000000 ) ) ;
#131 = LOCAL_TIME ( 15, 3, 43.00000000000000000, #295 ) ;
#132 = ADVANCED_FACE ( 'NONE', ( #102, #107 ), #94, .T. ) ;
#133 = CARTESIAN_POINT ( 'NONE',  ( 2.793185071074506684E-14, -9.797174393178825657E-16, 8.000000000000000000 ) ) ;
#134 = ORIENTED_EDGE ( 'NONE', *, *, #162, .F. ) ;
#135 = PERSON_AND_ORGANIZATION ( #198, #119 ) ;
#136 = PERSON_AND_ORGANIZATION_ROLE ( 'design_owner' ) ;
#137 = AXIS2_PLACEMENT_3D ( 'NONE', #292, #242, #173 ) ;
#138 = PRODUCT_RELATED_PRODUCT_CATEGORY ( 'detail', '', ( #278 ) ) ;
#139 =( NAMED_UNIT ( * ) SI_UNIT ( $, .STERADIAN. ) SOLID_ANGLE_UNIT ( ) );
#140 = CARTESIAN_POINT ( 'NONE',  ( 2.883896417162831814E-14, 0.8349999999999980771, 8.259807621135335509 ) ) ;
#141 = AXIS2_PLACEMENT_3D ( 'NONE', #133, #10, #115 ) ;
#142 = DIRECTION ( 'NONE',  ( 4.275831445896958607E-31, 1.000000000000000000, 1.224646799147353207E-16 ) ) ;
#143 = DIRECTION ( 'NONE',  ( 0.0000000000000000000, 1.000000000000000000, 0.0000000000000000000 ) ) ;
#144 = EDGE_LOOP ( 'NONE', ( #117 ) ) ;
#145 = CC_DESIGN_PERSON_AND_ORGANIZATION_ASSIGNMENT ( #42, #72, ( #127 ) ) ;
#146 = CARTESIAN_POINT ( 'NONE',  ( 8.728703347107833388E-16, -3.061616997868383018E-17, 0.2500000000000000000 ) ) ;
#147 = DIRECTION ( 'NONE',  ( 4.275831445896958607E-31, 1.000000000000000000, 1.224646799147353454E-16 ) ) ;
#148 = CARTESIAN_POINT ( 'NONE',  ( 0.0000000000000000000, 0.0000000000000000000, 0.0000000000000000000 ) ) ;
#149 = DIRECTION ( 'NONE',  ( 0.0000000000000000000, 1.000000000000000000, 0.0000000000000000000 ) ) ;
#150 = AXIS2_PLACEMENT_3D ( 'NONE', #104, #186, #225 ) ;
#151 = AXIS2_PLACEMENT_3D ( 'NONE', #32, #246, #130 ) ;
#152 = DIRECTION ( 'NONE',  ( 3.491481338843133355E-15, -1.224646799147353207E-16, 1.000000000000000000 ) ) ;
#153 = EDGE_LOOP ( 'NONE', ( #79 ) ) ;
#154 = EDGE_LOOP ( 'NONE', ( #245 ) ) ;
#155 = CYLINDRICAL_SURFACE ( 'NONE', #288, 1.499999999999999112 ) ;
#156 = LOCAL_TIME ( 15, 3, 43.00000000000000000, #296 ) ;
#157 = CIRCLE ( 'NONE', #23, 0.8653844939755809262 ) ;
#158 = AXIS2_PLACEMENT_3D ( 'NONE', #106, #81, #303 ) ;
#159 = DATE_AND_TIME ( #50, #131 ) ;
#160 = FACE_OUTER_BOUND ( 'NONE', #154, .T. ) ;
#161 = MECHANICAL_CONTEXT ( 'NONE', #92, 'mechanical' ) ;
#162 = EDGE_CURVE ( 'NONE', #66, #66, #172, .T. ) ;
#163 = PERSON_AND_ORGANIZATION ( #198, #119 ) ;
#164 = FACE_BOUND ( 'NONE', #220, .T. ) ;
#165 = APPROVAL_DATE_TIME ( #22, #47 ) ;
#166 = PRODUCT_DEFINITION_SHAPE ( 'NONE', 'NONE',  #297 ) ;
#167 = ORIENTED_EDGE ( 'NONE', *, *, #251, .T. ) ;
#168 = CARTESIAN_POINT ( 'NONE',  ( 6.284666409917640040E-14, -2.168404344971008868E-15, 18.00000000000000000 ) ) ;
#169 = CARTESIAN_POINT ( 'NONE',  ( 6.284666409917638777E-14, -2.204364238465235033E-15, 17.99999999999999645 ) ) ;
#170 = ADVANCED_FACE ( 'NONE', ( #125 ), #27, .F. ) ;
#171 = APPROVAL_PERSON_ORGANIZATION ( #229, #39, #197 ) ;
#172 = CIRCLE ( 'NONE', #124, 1.500000000000001554 ) ;
#173 = DIRECTION ( 'NONE',  ( 0.0000000000000000000, 1.000000000000000000, 0.0000000000000000000 ) ) ;
#174 = ORIENTED_EDGE ( 'NONE', *, *, #236, .F. ) ;
#175 = CIRCLE ( 'NONE', #12, 0.9849999999999990985 ) ;
#176 = DATE_AND_TIME ( #250, #187 ) ;
#177 = EDGE_LOOP ( 'NONE', ( #21 ) ) ;
#178 = CC_DESIGN_PERSON_AND_ORGANIZATION_ASSIGNMENT ( #195, #252, ( #48 ) ) ;
#179 = DATE_TIME_ROLE ( 'creation_date' ) ;
#180 = CALENDAR_DATE ( 2021, 1, 12 ) ;
#181 = COORDINATED_UNIVERSAL_TIME_OFFSET ( 1, 0, .AHEAD. ) ;
#182 = AXIS2_PLACEMENT_3D ( 'NONE', #8, #36, #189 ) ;
#183 = AXIS2_PLACEMENT_3D ( 'NONE', #201, #230, #248 ) ;
#184 = DIRECTION ( 'NONE',  ( 0.0000000000000000000, 1.000000000000000000, 0.0000000000000000000 ) ) ;
#185 = EDGE_LOOP ( 'NONE', ( #262 ) ) ;
#186 = DIRECTION ( 'NONE',  ( -3.491481338843133355E-15, 1.224646799147353207E-16, -1.000000000000000000 ) ) ;
#187 = LOCAL_TIME ( 15, 3, 43.00000000000000000, #298 ) ;
#188 = CONICAL_SURFACE ( 'NONE', #120, 0.8349999999999990763, 0.5235987755982965952 ) ;
#189 = DIRECTION ( 'NONE',  ( 0.0000000000000000000, 1.000000000000000000, 0.0000000000000000000 ) ) ;
#190 = FACE_BOUND ( 'NONE', #243, .T. ) ;
#191 = EDGE_LOOP ( 'NONE', ( #193 ) ) ;
#192 = AXIS2_PLACEMENT_3D ( 'NONE', #168, #55, #2 ) ;
#193 = ORIENTED_EDGE ( 'NONE', *, *, #108, .F. ) ;
#194 = CC_DESIGN_DATE_AND_TIME_ASSIGNMENT ( #176, #179, ( #297 ) ) ;
#195 = PERSON_AND_ORGANIZATION ( #198, #119 ) ;
#196 = CC_DESIGN_PERSON_AND_ORGANIZATION_ASSIGNMENT ( #163, #232, ( #297 ) ) ;
#197 = APPROVAL_ROLE ( '' ) ;
#198 = PERSON ( 'UNSPECIFIED', 'UNSPECIFIED', 'UNSPECIFIED', ('UNSPECIFIED'), ('UNSPECIFIED'), ('UNSPECIFIED') ) ;
#199 = COORDINATED_UNIVERSAL_TIME_OFFSET ( 1, 0, .AHEAD. ) ;
#200 = APPROVAL_ROLE ( '' ) ;
#201 = CARTESIAN_POINT ( 'NONE',  ( 0.0000000000000000000, 0.0000000000000000000, 0.0000000000000000000 ) ) ;
#202 = UNCERTAINTY_MEASURE_WITH_UNIT (LENGTH_MEASURE( 1.000000000000000082E-05 ), #270, 'distance_accuracy_value', 'NONE');
#203 = CARTESIAN_POINT ( 'NONE',  ( 6.405924284287275164E-14, 0.8653844939755785948, 18.34729635533384595 ) ) ;
#204 = ADVANCED_FACE ( 'NONE', ( #274, #164 ), #188, .T. ) ;
#205 = DIRECTION ( 'NONE',  ( -3.491481338843133355E-15, 1.224646799147353207E-16, -1.000000000000000000 ) ) ;
#206 = DIRECTION ( 'NONE',  ( -3.491481338843133355E-15, 1.224646799147353207E-16, -1.000000000000000000 ) ) ;
#207 = CARTESIAN_POINT ( 'NONE',  ( 1.735266225405037467E-13, -6.086494591762345225E-15, 49.70000000000000284 ) ) ;
#208 = DATE_AND_TIME ( #75, #156 ) ;
#209 = ORIENTED_EDGE ( 'NONE', *, *, #162, .T. ) ;
#210 = CARTESIAN_POINT ( 'NONE',  ( 8.728703347107833388E-16, -3.061616997868383018E-17, 0.2500000000000000000 ) ) ;
#211 = DIRECTION ( 'NONE',  ( -3.491481338843133355E-15, 1.224646799147353207E-16, -1.000000000000000000 ) ) ;
#212 = CARTESIAN_POINT ( 'NONE',  ( -1.701795038750829025E-31, 5.969093472805422900E-33, -4.874134711299077055E-17 ) ) ;
#213 = ADVANCED_FACE ( 'NONE', ( #15, #86 ), #155, .T. ) ;
#214 = CC_DESIGN_APPROVAL ( #275, ( #297 ) ) ;
#215 = DIRECTION ( 'NONE',  ( 3.910517653578147403E-31, 1.000000000000000000, 1.100712865467518188E-16 ) ) ;
#216 = FACE_OUTER_BOUND ( 'NONE', #144, .T. ) ;
#217 = EDGE_LOOP ( 'NONE', ( #105 ) ) ;
#218 = ADVANCED_BREP_SHAPE_REPRESENTATION ( '200789', ( #20, #128, #183 ), #29 ) ;
#219 = CARTESIAN_POINT ( 'NONE',  ( 7.662537530724186338E-14, 1.499999999999994005, 21.94637973709775025 ) ) ;
#220 = EDGE_LOOP ( 'NONE', ( #112 ) ) ;
#221 = EDGE_CURVE ( 'NONE', #228, #228, #286, .T. ) ;
#222 = EDGE_LOOP ( 'NONE', ( #174 ) ) ;
#223 = DIRECTION ( 'NONE',  ( -3.491481338843133355E-15, 1.224646799147353207E-16, -1.000000000000000000 ) ) ;
#224 = AXIS2_PLACEMENT_3D ( 'NONE', #212, #257, #59 ) ;
#225 = DIRECTION ( 'NONE',  ( 0.0000000000000000000, 1.000000000000000000, 0.0000000000000000000 ) ) ;
#226 = PERSON_AND_ORGANIZATION_ROLE ( 'design_supplier' ) ;
#227 = ORIENTED_EDGE ( 'NONE', *, *, #251, .F. ) ;
#228 = VERTEX_POINT ( 'NONE', #96 ) ;
#229 = PERSON_AND_ORGANIZATION ( #198, #119 ) ;
#230 = DIRECTION ( 'NONE',  ( 0.0000000000000000000, 0.0000000000000000000, 1.000000000000000000 ) ) ;
#231 = CARTESIAN_POINT ( 'NONE',  ( 1.735266225405037467E-13, 1.499999999999995559, 49.70000000000000284 ) ) ;
#232 = PERSON_AND_ORGANIZATION_ROLE ( 'creator' ) ;
#233 = CARTESIAN_POINT ( 'NONE',  ( 2.793185071074506684E-14, 0.9849999999999990985, 8.000000000000000000 ) ) ;
#234 = ADVANCED_FACE ( 'NONE', ( #25, #126 ), #70, .T. ) ;
#235 = SHAPE_DEFINITION_REPRESENTATION ( #166, #218 ) ;
#236 = EDGE_CURVE ( 'NONE', #103, #103, #253, .T. ) ;
#237 = VERTEX_POINT ( 'NONE', #6 ) ;
#238 = APPROVAL_PERSON_ORGANIZATION ( #269, #275, #200 ) ;
#239 = CIRCLE ( 'NONE', #224, 0.8406624327025947752 ) ;
#240 = DIRECTION ( 'NONE',  ( 3.491481338843133355E-15, -1.224646799147353207E-16, 1.000000000000000000 ) ) ;
#241 = FACE_OUTER_BOUND ( 'NONE', #283, .T. ) ;
#242 = DIRECTION ( 'NONE',  ( -3.491481338843133355E-15, 1.224646799147353207E-16, -1.000000000000000000 ) ) ;
#243 = EDGE_LOOP ( 'NONE', ( #267 ) ) ;
#244 = VERTEX_POINT ( 'NONE', #254 ) ;
#245 = ORIENTED_EDGE ( 'NONE', *, *, #58, .T. ) ;
#246 = DIRECTION ( 'NONE',  ( 3.491481338843133355E-15, -1.224646799147353207E-16, 1.000000000000000000 ) ) ;
#247 = AXIS2_PLACEMENT_3D ( 'NONE', #110, #205, #142 ) ;
#248 = DIRECTION ( 'NONE',  ( 1.000000000000000000, 0.0000000000000000000, 0.0000000000000000000 ) ) ;
#249 = AXIS2_PLACEMENT_3D ( 'NONE', #98, #279, #129 ) ;
#250 = CALENDAR_DATE ( 2021, 1, 12 ) ;
#251 = EDGE_CURVE ( 'NONE', #244, #244, #299, .T. ) ;
#252 = PERSON_AND_ORGANIZATION_ROLE ( 'classification_officer' ) ;
#253 = CIRCLE ( 'NONE', #182, 0.9850000000000002087 ) ;
#254 = CARTESIAN_POINT ( 'NONE',  ( 2.793185071074506684E-14, 0.9849999999999990985, 8.000000000000000000 ) ) ;
#255 = FACE_OUTER_BOUND ( 'NONE', #294, .T. ) ;
#256 = EDGE_LOOP ( 'NONE', ( #227 ) ) ;
#257 = DIRECTION ( 'NONE',  ( -3.491481338843133355E-15, 1.224646799147353207E-16, -1.000000000000000000 ) ) ;
#258 = AXIS2_PLACEMENT_3D ( 'NONE', #146, #240, #31 ) ;
#259 = APPLICATION_CONTEXT ( 'configuration controlled 3d designs of mechanical parts and assemblies' ) ;
#260 = CC_DESIGN_PERSON_AND_ORGANIZATION_ASSIGNMENT ( #135, #136, ( #278 ) ) ;
#261 = FACE_OUTER_BOUND ( 'NONE', #11, .T. ) ;
#262 = ORIENTED_EDGE ( 'NONE', *, *, #108, .T. ) ;
#263 = ADVANCED_FACE ( 'NONE', ( #290 ), #95, .T. ) ;
#264 = CIRCLE ( 'NONE', #137, 1.200000000000001732 ) ;
#265 = FACE_OUTER_BOUND ( 'NONE', #185, .T. ) ;
#266 = EDGE_LOOP ( 'NONE', ( #68 ) ) ;
#267 = ORIENTED_EDGE ( 'NONE', *, *, #58, .F. ) ;
#268 = DIRECTION ( 'NONE',  ( -4.275831445896958607E-31, -1.000000000000000000, -1.224646799147353207E-16 ) ) ;
#269 = PERSON_AND_ORGANIZATION ( #198, #119 ) ;
#270 =( LENGTH_UNIT ( ) NAMED_UNIT ( * ) SI_UNIT ( .MILLI., .METRE. ) );
#271 = EDGE_LOOP ( 'NONE', ( #209 ) ) ;
#272 = PERSON_AND_ORGANIZATION ( #198, #119 ) ;
#273 = DATE_AND_TIME ( #180, #53 ) ;
#274 = FACE_OUTER_BOUND ( 'NONE', #222, .T. ) ;
#275 = APPROVAL ( #121, 'UNSPECIFIED' ) ;
#276 = CLOSED_SHELL ( 'NONE', ( #78, #132, #19, #263 ) ) ;
#277 = CALENDAR_DATE ( 2021, 1, 12 ) ;
#278 = PRODUCT ( '200789', '200789', '', ( #161 ) ) ;
#279 = DIRECTION ( 'NONE',  ( 3.491481338843133355E-15, -1.224646799147353207E-16, 1.000000000000000000 ) ) ;
#280 = VERTEX_POINT ( 'NONE', #203 ) ;
#281 = APPROVAL_PERSON_ORGANIZATION ( #49, #47, #91 ) ;
#282 = DIRECTION ( 'NONE',  ( -3.491481338843133355E-15, 1.224646799147353207E-16, -1.000000000000000000 ) ) ;
#283 = EDGE_LOOP ( 'NONE', ( #51 ) ) ;
#284 = DIRECTION ( 'NONE',  ( -3.491481338843133355E-15, 1.224646799147353207E-16, -1.000000000000000000 ) ) ;
#285 = DIRECTION ( 'NONE',  ( 4.275831445896958607E-31, 1.000000000000000000, 1.224646799147353454E-16 ) ) ;
#286 = CIRCLE ( 'NONE', #77, 0.8350000000000001865 ) ;
#287 = CIRCLE ( 'NONE', #18, 0.8349999999999990763 ) ;
#288 = AXIS2_PLACEMENT_3D ( 'NONE', #26, #284, #147 ) ;
#289 = CARTESIAN_POINT ( 'NONE',  ( 2.793185071074506684E-14, 7.386316929609635581E-33, 8.000000000000000000 ) ) ;
#290 = FACE_OUTER_BOUND ( 'NONE', #256, .T. ) ;
#291 = EDGE_CURVE ( 'NONE', #73, #73, #175, .T. ) ;
#292 = CARTESIAN_POINT ( 'NONE',  ( 1.745740669421566678E-13, -6.123233995736766085E-15, 50.00000000000000000 ) ) ;
#293 = DIRECTION ( 'NONE',  ( 3.491481338843133355E-15, -1.224646799147353207E-16, 1.000000000000000000 ) ) ;
#294 = EDGE_LOOP ( 'NONE', ( #33 ) ) ;
#295 = COORDINATED_UNIVERSAL_TIME_OFFSET ( 1, 0, .AHEAD. ) ;
#296 = COORDINATED_UNIVERSAL_TIME_OFFSET ( 1, 0, .AHEAD. ) ;
#297 = PRODUCT_DEFINITION ( 'UNKNOWN', '', #127, #54 ) ;
#298 = COORDINATED_UNIVERSAL_TIME_OFFSET ( 1, 0, .AHEAD. ) ;
#299 = CIRCLE ( 'NONE', #141, 0.9850000000000002087 ) ;
#300 = CIRCLE ( 'NONE', #158, 1.499999999999996669 ) ;
#301 = CARTESIAN_POINT ( 'NONE',  ( 8.728703347107837333E-16, 0.9849999999999990985, 0.2500000000000001110 ) ) ;
#302 = DIRECTION ( 'NONE',  ( -3.491481338843133355E-15, 1.224646799147353207E-16, -1.000000000000000000 ) ) ;
#303 = DIRECTION ( 'NONE',  ( 0.0000000000000000000, 1.000000000000000000, 0.0000000000000000000 ) ) ;
ENDSEC;
END-ISO-10303-21;
