ISO-10303-21;
HEADER;
FILE_DESCRIPTION (( 'STEP AP203' ),
    '1' );
FILE_NAME ('200788.step',
    '2021-12-01T14:03:43',
    ( '' ),
    ( '' ),
    'SwSTEP 2.0',
    'SolidWorks 2019',
    '' );
FILE_SCHEMA (( 'CONFIG_CONTROL_DESIGN' ));
ENDSEC;

DATA;
#1 = AXIS2_PLACEMENT_3D ( 'NONE', #69, #233, #70 ) ;
#2 = ORIENTED_EDGE ( 'NONE', *, *, #167, .T. ) ;
#3 = PERSON_AND_ORGANIZATION ( #193, #9 ) ;
#4 = EDGE_LOOP ( 'NONE', ( #203 ) ) ;
#5 = EDGE_CURVE ( 'NONE', #271, #271, #215, .T. ) ;
#6 = EDGE_LOOP ( 'NONE', ( #283 ) ) ;
#7 = PERSON_AND_ORGANIZATION_ROLE ( 'design_supplier' ) ;
#8 = FACE_OUTER_BOUND ( 'NONE', #282, .T. ) ;
#9 = ORGANIZATION ( 'UNSPECIFIED', 'UNSPECIFIED', '' ) ;
#10 = APPROVAL_ROLE ( '' ) ;
#11 = CARTESIAN_POINT ( 'NONE',  ( 1.745740669421566678E-13, 8.998558695971067645E-33, 50.00000000000000000 ) ) ;
#12 =( NAMED_UNIT ( * ) PLANE_ANGLE_UNIT ( ) SI_UNIT ( $, .RADIAN. ) );
#13 = PLANE ( 'NONE',  #43 ) ;
#14 = CARTESIAN_POINT ( 'NONE',  ( 2.444036937190193349E-14, 0.7599999999999991207, 7.000000000000000000 ) ) ;
#15 = EDGE_CURVE ( 'NONE', #177, #177, #299, .T. ) ;
#16 = DIRECTION ( 'NONE',  ( -3.491481338843133355E-15, 1.224646799147353207E-16, -1.000000000000000000 ) ) ;
#17 = AXIS2_PLACEMENT_3D ( 'NONE', #190, #166, #46 ) ;
#18 =( NAMED_UNIT ( * ) SI_UNIT ( $, .STERADIAN. ) SOLID_ANGLE_UNIT ( ) );
#19 = DIRECTION ( 'NONE',  ( -3.491481338843133355E-15, 1.224646799147353207E-16, -1.000000000000000000 ) ) ;
#20 = DIRECTION ( 'NONE',  ( -3.491481338843133355E-15, 1.224646799147353207E-16, -1.000000000000000000 ) ) ;
#21 = APPROVAL_DATE_TIME ( #163, #294 ) ;
#22 = AXIS2_PLACEMENT_3D ( 'NONE', #61, #129, #221 ) ;
#23 = CC_DESIGN_PERSON_AND_ORGANIZATION_ASSIGNMENT ( #108, #80, ( #44 ) ) ;
#24 = MANIFOLD_SOLID_BREP ( 'Corps-Déplacer/Copier1[2]', #168 ) ;
#25 = ORIENTED_EDGE ( 'NONE', *, *, #5, .T. ) ;
#26 = AXIS2_PLACEMENT_3D ( 'NONE', #236, #53, #33 ) ;
#27 = CARTESIAN_POINT ( 'NONE',  ( 2.504511167915744066E-14, -8.784642641776459355E-16, 7.173205080756893004 ) ) ;
#28 = AXIS2_PLACEMENT_3D ( 'NONE', #38, #92, #249 ) ;
#29 = EDGE_CURVE ( 'NONE', #88, #88, #75, .T. ) ;
#30 = EDGE_LOOP ( 'NONE', ( #102 ) ) ;
#31 = APPROVAL_ROLE ( '' ) ;
#32 = CARTESIAN_POINT ( 'NONE',  ( 2.444036937190193349E-14, 0.7599999999999991207, 7.000000000000000000 ) ) ;
#33 = DIRECTION ( 'NONE',  ( 0.0000000000000000000, 1.000000000000000000, 0.0000000000000000000 ) ) ;
#34 = CC_DESIGN_PERSON_AND_ORGANIZATION_ASSIGNMENT ( #158, #94, ( #120 ) ) ;
#35 = DIRECTION ( 'NONE',  ( 1.000000000000000000, 0.0000000000000000000, 0.0000000000000000000 ) ) ;
#36 = FACE_OUTER_BOUND ( 'NONE', #151, .T. ) ;
#37 = DIRECTION ( 'NONE',  ( -3.491481338843133355E-15, 1.224646799147353207E-16, -1.000000000000000000 ) ) ;
#38 = CARTESIAN_POINT ( 'NONE',  ( 2.444036937190193349E-14, 5.699087174115045773E-33, 7.000000000000000000 ) ) ;
#39 = FACE_OUTER_BOUND ( 'NONE', #173, .T. ) ;
#40 = CARTESIAN_POINT ( 'NONE',  ( 1.735266225405037467E-13, -6.086494591762345225E-15, 49.70000000000000284 ) ) ;
#41 = PERSON_AND_ORGANIZATION ( #193, #9 ) ;
#42 = PLANE ( 'NONE',  #28 ) ;
#43 = AXIS2_PLACEMENT_3D ( 'NONE', #11, #19, #97 ) ;
#44 = SECURITY_CLASSIFICATION ( '', '', #105 ) ;
#45 = PLANE ( 'NONE',  #60 ) ;
#46 = DIRECTION ( 'NONE',  ( 4.275831445896958607E-31, 1.000000000000000000, 1.224646799147353207E-16 ) ) ;
#47 = SHAPE_DEFINITION_REPRESENTATION ( #160, #235 ) ;
#48 = AXIS2_PLACEMENT_3D ( 'NONE', #153, #131, #146 ) ;
#49 = PERSON_AND_ORGANIZATION ( #193, #9 ) ;
#50 = EDGE_CURVE ( 'NONE', #67, #67, #114, .T. ) ;
#51 = CC_DESIGN_APPROVAL ( #134, ( #237 ) ) ;
#52 = APPROVAL_STATUS ( 'not_yet_approved' ) ;
#53 = DIRECTION ( 'NONE',  ( -3.491481338843133355E-15, 1.224646799147353207E-16, -1.000000000000000000 ) ) ;
#54 = COORDINATED_UNIVERSAL_TIME_OFFSET ( 1, 0, .AHEAD. ) ;
#55 = ORIENTED_EDGE ( 'NONE', *, *, #257, .T. ) ;
#56 = ADVANCED_FACE ( 'NONE', ( #268, #65 ), #217, .T. ) ;
#57 = ORIENTED_EDGE ( 'NONE', *, *, #82, .F. ) ;
#58 = PERSON_AND_ORGANIZATION ( #193, #9 ) ;
#59 = CIRCLE ( 'NONE', #1, 1.200000000000001732 ) ;
#60 = AXIS2_PLACEMENT_3D ( 'NONE', #95, #228, #115 ) ;
#61 = CARTESIAN_POINT ( 'NONE',  ( -2.632468789807174739E-31, 9.233457562631139186E-33, -7.539690275645053831E-17 ) ) ;
#62 = DATE_AND_TIME ( #106, #170 ) ;
#63 = MECHANICAL_CONTEXT ( 'NONE', #291, 'mechanical' ) ;
#64 = CC_DESIGN_DATE_AND_TIME_ASSIGNMENT ( #264, #145, ( #44 ) ) ;
#65 = FACE_BOUND ( 'NONE', #87, .T. ) ;
#66 = DIRECTION ( 'NONE',  ( 0.0000000000000000000, 1.000000000000000000, 0.0000000000000000000 ) ) ;
#67 = VERTEX_POINT ( 'NONE', #130 ) ;
#68 = APPROVAL_PERSON_ORGANIZATION ( #286, #134, #10 ) ;
#69 = CARTESIAN_POINT ( 'NONE',  ( 1.745740669421566678E-13, -6.123233995736766085E-15, 50.00000000000000000 ) ) ;
#70 = DIRECTION ( 'NONE',  ( 0.0000000000000000000, 1.000000000000000000, 0.0000000000000000000 ) ) ;
#71 = DATE_AND_TIME ( #109, #247 ) ;
#72 = DIRECTION ( 'NONE',  ( 3.491481338843133355E-15, -1.224646799147353207E-16, 1.000000000000000000 ) ) ;
#73 = FACE_OUTER_BOUND ( 'NONE', #4, .T. ) ;
#74 = FACE_OUTER_BOUND ( 'NONE', #262, .T. ) ;
#75 = CIRCLE ( 'NONE', #26, 1.499999999999996447 ) ;
#76 = DESIGN_CONTEXT ( 'detailed design', #199, 'design' ) ;
#77 = CC_DESIGN_PERSON_AND_ORGANIZATION_ASSIGNMENT ( #216, #7, ( #191 ) ) ;
#78 = ORIENTED_EDGE ( 'NONE', *, *, #99, .T. ) ;
#79 = ORIENTED_EDGE ( 'NONE', *, *, #15, .T. ) ;
#80 = PERSON_AND_ORGANIZATION_ROLE ( 'classification_officer' ) ;
#81 = DIRECTION ( 'NONE',  ( 0.0000000000000000000, 1.000000000000000000, 0.0000000000000000000 ) ) ;
#82 = EDGE_CURVE ( 'NONE', #292, #292, #213, .T. ) ;
#83 = AXIS2_PLACEMENT_3D ( 'NONE', #159, #258, #155 ) ;
#84 = CARTESIAN_POINT ( 'NONE',  ( 2.444036937190193349E-14, -8.572527594031473190E-16, 7.000000000000000000 ) ) ;
#85 = CARTESIAN_POINT ( 'NONE',  ( 5.237222008264700033E-14, 0.6599999999999982547, 15.00000000000000000 ) ) ;
#86 = ADVANCED_FACE ( 'NONE', ( #110, #205 ), #212, .T. ) ;
#87 = EDGE_LOOP ( 'NONE', ( #200 ) ) ;
#88 = VERTEX_POINT ( 'NONE', #179 ) ;
#89 = DIRECTION ( 'NONE',  ( 0.0000000000000000000, 1.000000000000000000, 0.0000000000000000000 ) ) ;
#90 = VERTEX_POINT ( 'NONE', #161 ) ;
#91 = CONICAL_SURFACE ( 'NONE', #207, 1.200000000000001732, 0.7853981633974453924 ) ;
#92 = DIRECTION ( 'NONE',  ( 3.491481338843133355E-15, -1.224646799147353207E-16, 1.000000000000000000 ) ) ;
#93 = ADVANCED_FACE ( 'NONE', ( #136, #269 ), #119, .T. ) ;
#94 = PERSON_AND_ORGANIZATION_ROLE ( 'design_owner' ) ;
#95 = CARTESIAN_POINT ( 'NONE',  ( 2.444036937190193349E-14, 5.699087174115045773E-33, 7.000000000000000000 ) ) ;
#96 = DIRECTION ( 'NONE',  ( -5.068236695755889494E-31, -1.000000000000000000, -1.426581805901981114E-16 ) ) ;
#97 = DIRECTION ( 'NONE',  ( 4.275831445896958607E-31, 1.000000000000000000, 1.224646799147353207E-16 ) ) ;
#98 = APPROVAL_PERSON_ORGANIZATION ( #49, #209, #171 ) ;
#99 = EDGE_CURVE ( 'NONE', #156, #156, #128, .T. ) ;
#100 = TOROIDAL_SURFACE ( 'NONE', #103, 2.660000000000000142, 2.000000000000000000 ) ;
#101 = LOCAL_TIME ( 15, 3, 43.00000000000000000, #303 ) ;
#102 = ORIENTED_EDGE ( 'NONE', *, *, #244, .F. ) ;
#103 = AXIS2_PLACEMENT_3D ( 'NONE', #246, #137, #185 ) ;
#104 = CALENDAR_DATE ( 2021, 1, 12 ) ;
#105 = SECURITY_CLASSIFICATION_LEVEL ( 'unclassified' ) ;
#106 = CALENDAR_DATE ( 2021, 1, 12 ) ;
#107 = EDGE_LOOP ( 'NONE', ( #195 ) ) ;
#108 = PERSON_AND_ORGANIZATION ( #193, #9 ) ;
#109 = CALENDAR_DATE ( 2021, 1, 12 ) ;
#110 = FACE_OUTER_BOUND ( 'NONE', #243, .T. ) ;
#111 = PRODUCT_RELATED_PRODUCT_CATEGORY ( 'detail', '', ( #120 ) ) ;
#112 = CARTESIAN_POINT ( 'NONE',  ( 1.745740669421566678E-13, -6.123233995736766085E-15, 50.00000000000000000 ) ) ;
#113 = VERTEX_POINT ( 'NONE', #14 ) ;
#114 = CIRCLE ( 'NONE', #22, 0.6156624327025946863 ) ;
#115 = DIRECTION ( 'NONE',  ( -4.275831445896958607E-31, -1.000000000000000000, -1.224646799147353207E-16 ) ) ;
#116 = PERSON_AND_ORGANIZATION_ROLE ( 'creator' ) ;
#117 = CARTESIAN_POINT ( 'NONE',  ( 5.358479882634335789E-14, -1.879501735712543302E-15, 15.34729635533384595 ) ) ;
#118 = DIRECTION ( 'NONE',  ( 0.0000000000000000000, -1.000000000000000000, 0.0000000000000000000 ) ) ;
#119 = CONICAL_SURFACE ( 'NONE', #234, 0.7599999999999991207, 0.5235987755982930425 ) ;
#120 = PRODUCT ( '200788', '200788', '', ( #63 ) ) ;
#121 = UNCERTAINTY_MEASURE_WITH_UNIT (LENGTH_MEASURE( 1.000000000000000082E-05 ), #154, 'distance_accuracy_value', 'NONE');
#122 = MANIFOLD_SOLID_BREP ( 'Corps-Déplacer/Copier1[1]', #138 ) ;
#123 = CONICAL_SURFACE ( 'NONE', #284, 1.499999999999996447, 0.1745329251994261199 ) ;
#124 = CC_DESIGN_SECURITY_CLASSIFICATION ( #44, ( #191 ) ) ;
#125 = ADVANCED_FACE ( 'NONE', ( #277, #162 ), #100, .F. ) ;
#126 = EDGE_LOOP ( 'NONE', ( #127 ) ) ;
#127 = ORIENTED_EDGE ( 'NONE', *, *, #29, .T. ) ;
#128 = CIRCLE ( 'NONE', #194, 1.500000000000001554 ) ;
#129 = DIRECTION ( 'NONE',  ( -3.491481338843133355E-15, 1.224646799147353207E-16, -1.000000000000000000 ) ) ;
#130 = CARTESIAN_POINT ( 'NONE',  ( -4.276423536147513034E-47, 0.6156624327025946863, 0.0000000000000000000 ) ) ;
#131 = DIRECTION ( 'NONE',  ( -3.491481338843133355E-15, 1.224646799147353207E-16, -1.000000000000000000 ) ) ;
#132 = CARTESIAN_POINT ( 'NONE',  ( 1.745740669421566678E-13, 1.199999999999995515, 50.00000000000000000 ) ) ;
#133 = DIRECTION ( 'NONE',  ( -3.491481338843133355E-15, 1.224646799147353207E-16, -1.000000000000000000 ) ) ;
#134 = APPROVAL ( #186, 'UNSPECIFIED' ) ;
#135 = VERTEX_POINT ( 'NONE', #132 ) ;
#136 = FACE_BOUND ( 'NONE', #107, .T. ) ;
#137 = DIRECTION ( 'NONE',  ( -3.491481338843133355E-15, 1.224646799147353207E-16, -1.000000000000000000 ) ) ;
#138 = CLOSED_SHELL ( 'NONE', ( #140, #56, #86, #125, #174, #301, #265, #143 ) ) ;
#139 = APPROVAL_PERSON_ORGANIZATION ( #58, #294, #31 ) ;
#140 = ADVANCED_FACE ( 'NONE', ( #141 ), #42, .F. ) ;
#141 = FACE_OUTER_BOUND ( 'NONE', #263, .T. ) ;
#142 = FACE_BOUND ( 'NONE', #239, .T. ) ;
#143 = ADVANCED_FACE ( 'NONE', ( #232 ), #13, .F. ) ;
#144 =( GEOMETRIC_REPRESENTATION_CONTEXT ( 3 ) GLOBAL_UNCERTAINTY_ASSIGNED_CONTEXT ( ( #121 ) ) GLOBAL_UNIT_ASSIGNED_CONTEXT ( ( #154, #12, #18 ) ) REPRESENTATION_CONTEXT ( 'NONE', 'WORKASPACE' ) );
#145 = DATE_TIME_ROLE ( 'classification_date' ) ;
#146 = DIRECTION ( 'NONE',  ( 0.0000000000000000000, 1.000000000000000000, 0.0000000000000000000 ) ) ;
#147 = ORIENTED_EDGE ( 'NONE', *, *, #50, .T. ) ;
#148 = ORIENTED_EDGE ( 'NONE', *, *, #29, .F. ) ;
#149 = APPROVAL_STATUS ( 'not_yet_approved' ) ;
#150 = ADVANCED_FACE ( 'NONE', ( #73 ), #45, .T. ) ;
#151 = EDGE_LOOP ( 'NONE', ( #147 ) ) ;
#152 = APPLICATION_PROTOCOL_DEFINITION ( 'international standard', 'config_control_design', 1994, #199 ) ;
#153 = CARTESIAN_POINT ( 'NONE',  ( 2.504511167915744066E-14, -8.784642641776459355E-16, 7.173205080756893004 ) ) ;
#154 =( LENGTH_UNIT ( ) NAMED_UNIT ( * ) SI_UNIT ( .MILLI., .METRE. ) );
#155 = DIRECTION ( 'NONE',  ( 4.275831445896957731E-31, 1.000000000000000000, 1.224646799147353207E-16 ) ) ;
#156 = VERTEX_POINT ( 'NONE', #248 ) ;
#157 = CARTESIAN_POINT ( 'NONE',  ( 2.444036937190193349E-14, -8.572527594031473190E-16, 7.000000000000000000 ) ) ;
#158 = PERSON_AND_ORGANIZATION ( #193, #9 ) ;
#159 = CARTESIAN_POINT ( 'NONE',  ( 0.0000000000000000000, 0.0000000000000000000, 0.0000000000000000000 ) ) ;
#160 = PRODUCT_DEFINITION_SHAPE ( 'NONE', 'NONE',  #237 ) ;
#161 = CARTESIAN_POINT ( 'NONE',  ( 8.728703347107835360E-16, 0.7599999999999991207, 0.2500000000000000555 ) ) ;
#162 = FACE_OUTER_BOUND ( 'NONE', #241, .T. ) ;
#163 = DATE_AND_TIME ( #270, #164 ) ;
#164 = LOCAL_TIME ( 15, 3, 43.00000000000000000, #220 ) ;
#165 = FACE_OUTER_BOUND ( 'NONE', #285, .T. ) ;
#166 = DIRECTION ( 'NONE',  ( -3.491481338843133355E-15, 1.224646799147353207E-16, -1.000000000000000000 ) ) ;
#167 = EDGE_CURVE ( 'NONE', #231, #231, #281, .T. ) ;
#168 = CLOSED_SHELL ( 'NONE', ( #169, #93, #298, #150 ) ) ;
#169 = ADVANCED_FACE ( 'NONE', ( #36 ), #211, .F. ) ;
#170 = LOCAL_TIME ( 15, 3, 43.00000000000000000, #54 ) ;
#171 = APPROVAL_ROLE ( '' ) ;
#172 = ORIENTED_EDGE ( 'NONE', *, *, #15, .F. ) ;
#173 = EDGE_LOOP ( 'NONE', ( #78 ) ) ;
#174 = ADVANCED_FACE ( 'NONE', ( #288, #182 ), #123, .T. ) ;
#175 = ORIENTED_EDGE ( 'NONE', *, *, #99, .F. ) ;
#176 = AXIS2_PLACEMENT_3D ( 'NONE', #266, #180, #287 ) ;
#177 = VERTEX_POINT ( 'NONE', #85 ) ;
#178 = DIRECTION ( 'NONE',  ( -3.491481338843133355E-15, 1.224646799147353207E-16, -1.000000000000000000 ) ) ;
#179 = CARTESIAN_POINT ( 'NONE',  ( 6.961613685280282655E-14, 1.499999999999994005, 19.93885405553088930 ) ) ;
#180 = DIRECTION ( 'NONE',  ( -3.491481338843133355E-15, 1.224646799147353207E-16, -1.000000000000000000 ) ) ;
#181 = CYLINDRICAL_SURFACE ( 'NONE', #278, 1.499999999999998890 ) ;
#182 = FACE_OUTER_BOUND ( 'NONE', #126, .T. ) ;
#183 = AXIS2_PLACEMENT_3D ( 'NONE', #274, #188, #272 ) ;
#184 = APPLICATION_PROTOCOL_DEFINITION ( 'international standard', 'config_control_design', 1994, #291 ) ;
#185 = DIRECTION ( 'NONE',  ( 4.275831445896958607E-31, 1.000000000000000000, 1.224646799147353207E-16 ) ) ;
#186 = APPROVAL_STATUS ( 'not_yet_approved' ) ;
#187 = DIRECTION ( 'NONE',  ( -3.491481338843133355E-15, 1.224646799147353207E-16, -1.000000000000000000 ) ) ;
#188 = DIRECTION ( 'NONE',  ( -3.491481338843133355E-15, 1.224646799147353207E-16, -1.000000000000000000 ) ) ;
#189 = AXIS2_PLACEMENT_3D ( 'NONE', #245, #275, #35 ) ;
#190 = CARTESIAN_POINT ( 'NONE',  ( 0.0000000000000000000, 0.0000000000000000000, 0.0000000000000000000 ) ) ;
#191 = PRODUCT_DEFINITION_FORMATION_WITH_SPECIFIED_SOURCE ( 'ANY', '', #120, .NOT_KNOWN. ) ;
#192 = EDGE_CURVE ( 'NONE', #90, #90, #230, .T. ) ;
#193 = PERSON ( 'UNSPECIFIED', 'UNSPECIFIED', 'UNSPECIFIED', ('UNSPECIFIED'), ('UNSPECIFIED'), ('UNSPECIFIED') ) ;
#194 = AXIS2_PLACEMENT_3D ( 'NONE', #40, #187, #66 ) ;
#195 = ORIENTED_EDGE ( 'NONE', *, *, #50, .F. ) ;
#196 = DATE_AND_TIME ( #295, #225 ) ;
#197 = ORIENTED_EDGE ( 'NONE', *, *, #244, .T. ) ;
#198 = EDGE_LOOP ( 'NONE', ( #172 ) ) ;
#199 = APPLICATION_CONTEXT ( 'configuration controlled 3d designs of mechanical parts and assemblies' ) ;
#200 = ORIENTED_EDGE ( 'NONE', *, *, #82, .T. ) ;
#201 = DATE_TIME_ROLE ( 'creation_date' ) ;
#202 = DIRECTION ( 'NONE',  ( 4.275831445896958607E-31, 1.000000000000000000, 1.224646799147353454E-16 ) ) ;
#203 = ORIENTED_EDGE ( 'NONE', *, *, #257, .F. ) ;
#204 = COORDINATED_UNIVERSAL_TIME_OFFSET ( 1, 0, .AHEAD. ) ;
#205 = FACE_OUTER_BOUND ( 'NONE', #302, .T. ) ;
#206 = DIRECTION ( 'NONE',  ( 0.0000000000000000000, 1.000000000000000000, 0.0000000000000000000 ) ) ;
#207 = AXIS2_PLACEMENT_3D ( 'NONE', #112, #20, #289 ) ;
#208 = DIRECTION ( 'NONE',  ( -4.275831445896958607E-31, -1.000000000000000000, -1.224646799147353207E-16 ) ) ;
#209 = APPROVAL ( #52, 'UNSPECIFIED' ) ;
#210 = COORDINATED_UNIVERSAL_TIME_OFFSET ( 1, 0, .AHEAD. ) ;
#211 = PLANE ( 'NONE',  #280 ) ;
#212 = CYLINDRICAL_SURFACE ( 'NONE', #83, 0.6599999999999995870 ) ;
#213 = CIRCLE ( 'NONE', #290, 0.6599999999999990319 ) ;
#214 = CC_DESIGN_PERSON_AND_ORGANIZATION_ASSIGNMENT ( #3, #223, ( #191 ) ) ;
#215 = CIRCLE ( 'NONE', #260, 0.7600000000000000089 ) ;
#216 = PERSON_AND_ORGANIZATION ( #193, #9 ) ;
#217 = CONICAL_SURFACE ( 'NONE', #48, 0.6599999999999990319, 0.5235987755982912661 ) ;
#218 = EDGE_LOOP ( 'NONE', ( #261 ) ) ;
#219 = ORIENTED_EDGE ( 'NONE', *, *, #5, .F. ) ;
#220 = COORDINATED_UNIVERSAL_TIME_OFFSET ( 1, 0, .AHEAD. ) ;
#221 = DIRECTION ( 'NONE',  ( 4.275831445896958607E-31, 1.000000000000000000, 1.224646799147353207E-16 ) ) ;
#222 = EDGE_LOOP ( 'NONE', ( #219 ) ) ;
#223 = PERSON_AND_ORGANIZATION_ROLE ( 'creator' ) ;
#224 = ORIENTED_EDGE ( 'NONE', *, *, #192, .F. ) ;
#225 = LOCAL_TIME ( 15, 3, 43.00000000000000000, #210 ) ;
#226 = CARTESIAN_POINT ( 'NONE',  ( -1.316234394903587369E-31, 4.616728781315569593E-33, -3.769845137822526916E-17 ) ) ;
#227 = DIRECTION ( 'NONE',  ( -3.491481338843133355E-15, 1.224646799147353207E-16, -1.000000000000000000 ) ) ;
#228 = DIRECTION ( 'NONE',  ( 3.491481338843133355E-15, -1.224646799147353207E-16, 1.000000000000000000 ) ) ;
#229 = CIRCLE ( 'NONE', #255, 0.7600000000000000089 ) ;
#230 = CIRCLE ( 'NONE', #183, 0.7599999999999991207 ) ;
#231 = VERTEX_POINT ( 'NONE', #267 ) ;
#232 = FACE_OUTER_BOUND ( 'NONE', #30, .T. ) ;
#233 = DIRECTION ( 'NONE',  ( -3.491481338843133355E-15, 1.224646799147353207E-16, -1.000000000000000000 ) ) ;
#234 = AXIS2_PLACEMENT_3D ( 'NONE', #297, #252, #96 ) ;
#235 = ADVANCED_BREP_SHAPE_REPRESENTATION ( '200788', ( #122, #24, #189 ), #144 ) ;
#236 = CARTESIAN_POINT ( 'NONE',  ( 6.961613685280282655E-14, -2.441805379777212443E-15, 19.93885405553088930 ) ) ;
#237 = PRODUCT_DEFINITION ( 'UNKNOWN', '', #191, #76 ) ;
#238 = EDGE_LOOP ( 'NONE', ( #224 ) ) ;
#239 = EDGE_LOOP ( 'NONE', ( #197 ) ) ;
#240 = APPROVAL_DATE_TIME ( #62, #209 ) ;
#241 = EDGE_LOOP ( 'NONE', ( #2 ) ) ;
#242 = CARTESIAN_POINT ( 'NONE',  ( 0.0000000000000000000, 0.0000000000000000000, 0.0000000000000000000 ) ) ;
#243 = EDGE_LOOP ( 'NONE', ( #57 ) ) ;
#244 = EDGE_CURVE ( 'NONE', #135, #135, #59, .T. ) ;
#245 = CARTESIAN_POINT ( 'NONE',  ( 0.0000000000000000000, 0.0000000000000000000, 0.0000000000000000000 ) ) ;
#246 = CARTESIAN_POINT ( 'NONE',  ( 5.237222008264700033E-14, -1.734723475976807094E-15, 15.00000000000000000 ) ) ;
#247 = LOCAL_TIME ( 15, 3, 43.00000000000000000, #204 ) ;
#248 = CARTESIAN_POINT ( 'NONE',  ( 1.735266225405037467E-13, 1.499999999999995559, 49.70000000000000284 ) ) ;
#249 = DIRECTION ( 'NONE',  ( -4.275831445896958607E-31, -1.000000000000000000, -1.224646799147353207E-16 ) ) ;
#250 = CC_DESIGN_PERSON_AND_ORGANIZATION_ASSIGNMENT ( #41, #116, ( #237 ) ) ;
#251 = CARTESIAN_POINT ( 'NONE',  ( 2.504511167915744066E-14, 0.6599999999999981437, 7.173205080756893004 ) ) ;
#252 = DIRECTION ( 'NONE',  ( 3.491481338843133355E-15, -1.224646799147353207E-16, 1.000000000000000000 ) ) ;
#253 = APPROVAL_DATE_TIME ( #71, #134 ) ;
#254 = CARTESIAN_POINT ( 'NONE',  ( 6.961613685280282655E-14, -2.441805379777212443E-15, 19.93885405553088930 ) ) ;
#255 = AXIS2_PLACEMENT_3D ( 'NONE', #157, #227, #293 ) ;
#256 = CC_DESIGN_APPROVAL ( #209, ( #191 ) ) ;
#257 = EDGE_CURVE ( 'NONE', #113, #113, #229, .T. ) ;
#258 = DIRECTION ( 'NONE',  ( -3.491481338843133355E-15, 1.224646799147353207E-16, -1.000000000000000000 ) ) ;
#259 = CYLINDRICAL_SURFACE ( 'NONE', #17, 0.7599999999999995648 ) ;
#260 = AXIS2_PLACEMENT_3D ( 'NONE', #84, #178, #81 ) ;
#261 = ORIENTED_EDGE ( 'NONE', *, *, #192, .T. ) ;
#262 = EDGE_LOOP ( 'NONE', ( #55 ) ) ;
#263 = EDGE_LOOP ( 'NONE', ( #25 ) ) ;
#264 = DATE_AND_TIME ( #104, #101 ) ;
#265 = ADVANCED_FACE ( 'NONE', ( #165, #142 ), #91, .T. ) ;
#266 = CARTESIAN_POINT ( 'NONE',  ( 5.237222008264700033E-14, -1.836970198721029589E-15, 15.00000000000000000 ) ) ;
#267 = CARTESIAN_POINT ( 'NONE',  ( 5.358479882634335789E-14, 0.6903844939755792165, 15.34729635533384595 ) ) ;
#268 = FACE_OUTER_BOUND ( 'NONE', #222, .T. ) ;
#269 = FACE_OUTER_BOUND ( 'NONE', #218, .T. ) ;
#270 = CALENDAR_DATE ( 2021, 1, 12 ) ;
#271 = VERTEX_POINT ( 'NONE', #32 ) ;
#272 = DIRECTION ( 'NONE',  ( 5.068236695755889494E-31, 1.000000000000000000, 1.426581805901981114E-16 ) ) ;
#273 = AXIS2_PLACEMENT_3D ( 'NONE', #117, #16, #206 ) ;
#274 = CARTESIAN_POINT ( 'NONE',  ( 8.728703347107831416E-16, -3.061616997868382402E-17, 0.2499999999999999445 ) ) ;
#275 = DIRECTION ( 'NONE',  ( 0.0000000000000000000, 0.0000000000000000000, 1.000000000000000000 ) ) ;
#276 = CC_DESIGN_DATE_AND_TIME_ASSIGNMENT ( #196, #201, ( #237 ) ) ;
#277 = FACE_OUTER_BOUND ( 'NONE', #198, .T. ) ;
#278 = AXIS2_PLACEMENT_3D ( 'NONE', #242, #37, #202 ) ;
#279 = FACE_OUTER_BOUND ( 'NONE', #238, .T. ) ;
#280 = AXIS2_PLACEMENT_3D ( 'NONE', #226, #72, #208 ) ;
#281 = CIRCLE ( 'NONE', #273, 0.6903844939755811039 ) ;
#282 = EDGE_LOOP ( 'NONE', ( #148 ) ) ;
#283 = ORIENTED_EDGE ( 'NONE', *, *, #167, .F. ) ;
#284 = AXIS2_PLACEMENT_3D ( 'NONE', #254, #296, #118 ) ;
#285 = EDGE_LOOP ( 'NONE', ( #175 ) ) ;
#286 = PERSON_AND_ORGANIZATION ( #193, #9 ) ;
#287 = DIRECTION ( 'NONE',  ( 0.0000000000000000000, 1.000000000000000000, 0.0000000000000000000 ) ) ;
#288 = FACE_BOUND ( 'NONE', #6, .T. ) ;
#289 = DIRECTION ( 'NONE',  ( 0.0000000000000000000, 1.000000000000000000, 0.0000000000000000000 ) ) ;
#290 = AXIS2_PLACEMENT_3D ( 'NONE', #27, #133, #89 ) ;
#291 = APPLICATION_CONTEXT ( 'configuration controlled 3d designs of mechanical parts and assemblies' ) ;
#292 = VERTEX_POINT ( 'NONE', #251 ) ;
#293 = DIRECTION ( 'NONE',  ( 0.0000000000000000000, 1.000000000000000000, 0.0000000000000000000 ) ) ;
#294 = APPROVAL ( #149, 'UNSPECIFIED' ) ;
#295 = CALENDAR_DATE ( 2021, 1, 12 ) ;
#296 = DIRECTION ( 'NONE',  ( 3.491481338843133355E-15, -1.224646799147353207E-16, 1.000000000000000000 ) ) ;
#297 = CARTESIAN_POINT ( 'NONE',  ( 8.728703347107831416E-16, -3.061616997868382402E-17, 0.2499999999999999445 ) ) ;
#298 = ADVANCED_FACE ( 'NONE', ( #279, #74 ), #259, .T. ) ;
#299 = CIRCLE ( 'NONE', #176, 0.6600000000000001421 ) ;
#300 = CC_DESIGN_APPROVAL ( #294, ( #44 ) ) ;
#301 = ADVANCED_FACE ( 'NONE', ( #8, #39 ), #181, .T. ) ;
#302 = EDGE_LOOP ( 'NONE', ( #79 ) ) ;
#303 = COORDINATED_UNIVERSAL_TIME_OFFSET ( 1, 0, .AHEAD. ) ;
ENDSEC;
END-ISO-10303-21;
