ISO-10303-21;
HEADER;
FILE_DESCRIPTION (( 'STEP AP203' ),
    '1' );
FILE_NAME ('200787.step',
    '2021-12-01T14:03:42',
    ( '' ),
    ( '' ),
    'SwSTEP 2.0',
    'SolidWorks 2019',
    '' );
FILE_SCHEMA (( 'CONFIG_CONTROL_DESIGN' ));
ENDSEC;

DATA;
#1 = AXIS2_PLACEMENT_3D ( 'NONE', #258, #184, #214 ) ;
#2 = FACE_OUTER_BOUND ( 'NONE', #204, .T. ) ;
#3 = CARTESIAN_POINT ( 'NONE',  ( -2.251912729480424486E-31, 7.898646587156469120E-33, -6.449734399057602389E-17 ) ) ;
#4 = ORIENTED_EDGE ( 'NONE', *, *, #250, .F. ) ;
#5 = FACE_OUTER_BOUND ( 'NONE', #70, .T. ) ;
#6 = ADVANCED_BREP_SHAPE_REPRESENTATION ( '200787', ( #51, #42, #255 ), #37 ) ;
#7 = VERTEX_POINT ( 'NONE', #49 ) ;
#8 = VERTEX_POINT ( 'NONE', #83 ) ;
#9 = CC_DESIGN_PERSON_AND_ORGANIZATION_ASSIGNMENT ( #151, #35, ( #223 ) ) ;
#10 = CARTESIAN_POINT ( 'NONE',  ( 6.971514272600542350E-14, 1.499999999999994005, 19.96721046462898386 ) ) ;
#11 = CONICAL_SURFACE ( 'NONE', #294, 0.7549999999999987832, 0.5235987755982930425 ) ;
#12 = AXIS2_PLACEMENT_3D ( 'NONE', #50, #239, #164 ) ;
#13 = EDGE_LOOP ( 'NONE', ( #69 ) ) ;
#14 = VERTEX_POINT ( 'NONE', #63 ) ;
#15 = DIRECTION ( 'NONE',  ( 3.491481338843133355E-15, -1.224646799147353207E-16, 1.000000000000000000 ) ) ;
#16 = COORDINATED_UNIVERSAL_TIME_OFFSET ( 1, 0, .AHEAD. ) ;
#17 = ADVANCED_FACE ( 'NONE', ( #110 ), #43, .F. ) ;
#18 = EDGE_LOOP ( 'NONE', ( #147 ) ) ;
#19 = DIRECTION ( 'NONE',  ( 3.491481338843133355E-15, -1.224646799147353207E-16, 1.000000000000000000 ) ) ;
#20 = CIRCLE ( 'NONE', #188, 0.6549999999999984723 ) ;
#21 = LOCAL_TIME ( 15, 3, 42.00000000000000000, #16 ) ;
#22 = CARTESIAN_POINT ( 'NONE',  ( 8.728703347107829444E-16, -3.061616997868381785E-17, 0.2499999999999998890 ) ) ;
#23 = DIRECTION ( 'NONE',  ( -3.491481338843133355E-15, 1.224646799147353207E-16, -1.000000000000000000 ) ) ;
#24 = PRODUCT_DEFINITION ( 'UNKNOWN', '', #223, #93 ) ;
#25 = PERSON ( 'UNSPECIFIED', 'UNSPECIFIED', 'UNSPECIFIED', ('UNSPECIFIED'), ('UNSPECIFIED'), ('UNSPECIFIED') ) ;
#26 = FACE_OUTER_BOUND ( 'NONE', #247, .T. ) ;
#27 = AXIS2_PLACEMENT_3D ( 'NONE', #301, #187, #80 ) ;
#28 = DIRECTION ( 'NONE',  ( -3.491481338843133355E-15, 1.224646799147353207E-16, -1.000000000000000000 ) ) ;
#29 = FACE_OUTER_BOUND ( 'NONE', #67, .T. ) ;
#30 = LOCAL_TIME ( 15, 3, 42.00000000000000000, #218 ) ;
#31 = APPROVAL_ROLE ( '' ) ;
#32 = APPROVAL_DATE_TIME ( #291, #90 ) ;
#33 = CARTESIAN_POINT ( 'NONE',  ( 1.745740669421566678E-13, 1.199999999999995515, 50.00000000000000000 ) ) ;
#34 = PRODUCT_RELATED_PRODUCT_CATEGORY ( 'detail', '', ( #79 ) ) ;
#35 = PERSON_AND_ORGANIZATION_ROLE ( 'creator' ) ;
#36 = AXIS2_PLACEMENT_3D ( 'NONE', #234, #28, #186 ) ;
#37 =( GEOMETRIC_REPRESENTATION_CONTEXT ( 3 ) GLOBAL_UNCERTAINTY_ASSIGNED_CONTEXT ( ( #68 ) ) GLOBAL_UNIT_ASSIGNED_CONTEXT ( ( #109, #197, #85 ) ) REPRESENTATION_CONTEXT ( 'NONE', 'WORKASPACE' ) );
#38 = FACE_BOUND ( 'NONE', #91, .T. ) ;
#39 = CARTESIAN_POINT ( 'NONE',  ( 2.444036937190193349E-14, 0.7549999999999987832, 7.000000000000000000 ) ) ;
#40 = SECURITY_CLASSIFICATION_LEVEL ( 'unclassified' ) ;
#41 = AXIS2_PLACEMENT_3D ( 'NONE', #139, #235, #121 ) ;
#42 = MANIFOLD_SOLID_BREP ( 'Corps-Déplacer/Copier1[2]', #76 ) ;
#43 = PLANE ( 'NONE',  #227 ) ;
#44 = APPLICATION_CONTEXT ( 'configuration controlled 3d designs of mechanical parts and assemblies' ) ;
#45 = DIRECTION ( 'NONE',  ( 0.0000000000000000000, 1.000000000000000000, 0.0000000000000000000 ) ) ;
#46 = PRODUCT_DEFINITION_SHAPE ( 'NONE', 'NONE',  #24 ) ;
#47 = ORIENTED_EDGE ( 'NONE', *, *, #217, .T. ) ;
#48 = CC_DESIGN_SECURITY_CLASSIFICATION ( #273, ( #223 ) ) ;
#49 = CARTESIAN_POINT ( 'NONE',  ( 5.358479882634336420E-14, 0.6853844939755785459, 15.34729635533384773 ) ) ;
#50 = CARTESIAN_POINT ( 'NONE',  ( 0.0000000000000000000, 0.0000000000000000000, 0.0000000000000000000 ) ) ;
#51 = MANIFOLD_SOLID_BREP ( 'Corps-Déplacer/Copier1[1]', #155 ) ;
#52 = PLANE ( 'NONE',  #41 ) ;
#53 = AXIS2_PLACEMENT_3D ( 'NONE', #73, #54, #144 ) ;
#54 = DIRECTION ( 'NONE',  ( -3.491481338843133355E-15, 1.224646799147353207E-16, -1.000000000000000000 ) ) ;
#55 = ORIENTED_EDGE ( 'NONE', *, *, #157, .T. ) ;
#56 = ADVANCED_FACE ( 'NONE', ( #257 ), #229, .T. ) ;
#57 = DIRECTION ( 'NONE',  ( -3.491481338843133355E-15, 1.224646799147353207E-16, -1.000000000000000000 ) ) ;
#58 = VERTEX_POINT ( 'NONE', #10 ) ;
#59 = APPROVAL_ROLE ( '' ) ;
#60 = LOCAL_TIME ( 15, 3, 42.00000000000000000, #84 ) ;
#61 = APPROVAL_STATUS ( 'not_yet_approved' ) ;
#62 = DATE_AND_TIME ( #113, #30 ) ;
#63 = CARTESIAN_POINT ( 'NONE',  ( 2.444036937190193349E-14, 0.7549999999999987832, 7.000000000000000000 ) ) ;
#64 = CARTESIAN_POINT ( 'NONE',  ( 2.504511167915743435E-14, -8.784642641776457383E-16, 7.173205080756891228 ) ) ;
#65 = APPLICATION_PROTOCOL_DEFINITION ( 'international standard', 'config_control_design', 1994, #44 ) ;
#66 = PERSON_AND_ORGANIZATION ( #25, #117 ) ;
#67 = EDGE_LOOP ( 'NONE', ( #296 ) ) ;
#68 = UNCERTAINTY_MEASURE_WITH_UNIT (LENGTH_MEASURE( 1.000000000000000082E-05 ), #109, 'distance_accuracy_value', 'NONE');
#69 = ORIENTED_EDGE ( 'NONE', *, *, #183, .T. ) ;
#70 = EDGE_LOOP ( 'NONE', ( #225 ) ) ;
#71 = AXIS2_PLACEMENT_3D ( 'NONE', #94, #182, #277 ) ;
#72 = DIRECTION ( 'NONE',  ( 0.0000000000000000000, 1.000000000000000000, 0.0000000000000000000 ) ) ;
#73 = CARTESIAN_POINT ( 'NONE',  ( 5.237222008264699402E-14, -1.836970198721029589E-15, 14.99999999999999822 ) ) ;
#74 = DIRECTION ( 'NONE',  ( -3.491481338843133355E-15, 1.224646799147353207E-16, -1.000000000000000000 ) ) ;
#75 = EDGE_CURVE ( 'NONE', #7, #7, #289, .T. ) ;
#76 = CLOSED_SHELL ( 'NONE', ( #174, #98, #256, #56 ) ) ;
#77 = ORIENTED_EDGE ( 'NONE', *, *, #232, .F. ) ;
#78 = FACE_BOUND ( 'NONE', #290, .T. ) ;
#79 = PRODUCT ( '200787', '200787', '', ( #246 ) ) ;
#80 = DIRECTION ( 'NONE',  ( 0.0000000000000000000, 1.000000000000000000, 0.0000000000000000000 ) ) ;
#81 = EDGE_CURVE ( 'NONE', #190, #190, #20, .T. ) ;
#82 = CALENDAR_DATE ( 2021, 1, 12 ) ;
#83 = CARTESIAN_POINT ( 'NONE',  ( 8.728703347107833388E-16, 0.7549999999999987832, 0.2500000000000000000 ) ) ;
#84 = COORDINATED_UNIVERSAL_TIME_OFFSET ( 1, 0, .AHEAD. ) ;
#85 =( NAMED_UNIT ( * ) SI_UNIT ( $, .STERADIAN. ) SOLID_ANGLE_UNIT ( ) );
#86 = EDGE_LOOP ( 'NONE', ( #145 ) ) ;
#87 = ADVANCED_FACE ( 'NONE', ( #203, #253 ), #136, .T. ) ;
#88 = EDGE_LOOP ( 'NONE', ( #159 ) ) ;
#89 = PERSON_AND_ORGANIZATION ( #25, #117 ) ;
#90 = APPROVAL ( #61, 'UNSPECIFIED' ) ;
#91 = EDGE_LOOP ( 'NONE', ( #154 ) ) ;
#92 = FACE_OUTER_BOUND ( 'NONE', #181, .T. ) ;
#93 = DESIGN_CONTEXT ( 'detailed design', #252, 'design' ) ;
#94 = CARTESIAN_POINT ( 'NONE',  ( -4.503825458960848973E-31, 1.579729317431293824E-32, -1.289946879811520478E-16 ) ) ;
#95 = CARTESIAN_POINT ( 'NONE',  ( 1.735266225405037467E-13, -6.086494591762345225E-15, 49.70000000000000284 ) ) ;
#96 = CONICAL_SURFACE ( 'NONE', #172, 1.499999999999996447, 0.1745329251994260922 ) ;
#97 = PLANE ( 'NONE',  #102 ) ;
#98 = ADVANCED_FACE ( 'NONE', ( #38, #92 ), #11, .T. ) ;
#99 = CARTESIAN_POINT ( 'NONE',  ( 2.444036937190193349E-14, -8.572527594031473190E-16, 7.000000000000000000 ) ) ;
#100 = EDGE_LOOP ( 'NONE', ( #55 ) ) ;
#101 = DIRECTION ( 'NONE',  ( 3.491481338843133355E-15, -1.224646799147353207E-16, 1.000000000000000000 ) ) ;
#102 = AXIS2_PLACEMENT_3D ( 'NONE', #3, #101, #285 ) ;
#103 = FACE_OUTER_BOUND ( 'NONE', #274, .T. ) ;
#104 = APPROVAL ( #262, 'UNSPECIFIED' ) ;
#105 = EDGE_LOOP ( 'NONE', ( #254 ) ) ;
#106 = APPROVAL_DATE_TIME ( #216, #104 ) ;
#107 = COORDINATED_UNIVERSAL_TIME_OFFSET ( 1, 0, .AHEAD. ) ;
#108 = AXIS2_PLACEMENT_3D ( 'NONE', #185, #166, #72 ) ;
#109 =( LENGTH_UNIT ( ) NAMED_UNIT ( * ) SI_UNIT ( .MILLI., .METRE. ) );
#110 = FACE_OUTER_BOUND ( 'NONE', #152, .T. ) ;
#111 = DATE_AND_TIME ( #224, #21 ) ;
#112 = DIRECTION ( 'NONE',  ( -3.491481338843133355E-15, 1.224646799147353207E-16, -1.000000000000000000 ) ) ;
#113 = CALENDAR_DATE ( 2021, 1, 12 ) ;
#114 = CIRCLE ( 'NONE', #108, 0.7549999999999996714 ) ;
#115 = ADVANCED_FACE ( 'NONE', ( #205, #132 ), #96, .T. ) ;
#116 = DIRECTION ( 'NONE',  ( -3.491481338843133355E-15, 1.224646799147353207E-16, -1.000000000000000000 ) ) ;
#117 = ORGANIZATION ( 'UNSPECIFIED', 'UNSPECIFIED', '' ) ;
#118 = CARTESIAN_POINT ( 'NONE',  ( 0.0000000000000000000, 0.0000000000000000000, 0.0000000000000000000 ) ) ;
#119 = DIRECTION ( 'NONE',  ( -5.101801177184739002E-31, -1.000000000000000000, -1.436029367530471775E-16 ) ) ;
#120 = CARTESIAN_POINT ( 'NONE',  ( 2.504511167915743435E-14, 0.6549999999999975842, 7.173205080756891228 ) ) ;
#121 = DIRECTION ( 'NONE',  ( 4.275831445896958607E-31, 1.000000000000000000, 1.224646799147353207E-16 ) ) ;
#122 = EDGE_CURVE ( 'NONE', #279, #279, #231, .T. ) ;
#123 = FACE_OUTER_BOUND ( 'NONE', #86, .T. ) ;
#124 = DIRECTION ( 'NONE',  ( 0.0000000000000000000, 1.000000000000000000, 0.0000000000000000000 ) ) ;
#125 = FACE_OUTER_BOUND ( 'NONE', #230, .T. ) ;
#126 = APPROVAL_PERSON_ORGANIZATION ( #286, #90, #59 ) ;
#127 = CALENDAR_DATE ( 2021, 1, 12 ) ;
#128 = DATE_TIME_ROLE ( 'creation_date' ) ;
#129 = DIRECTION ( 'NONE',  ( -3.491481338843133355E-15, 1.224646799147353207E-16, -1.000000000000000000 ) ) ;
#130 = APPROVAL ( #131, 'UNSPECIFIED' ) ;
#131 = APPROVAL_STATUS ( 'not_yet_approved' ) ;
#132 = FACE_OUTER_BOUND ( 'NONE', #100, .T. ) ;
#133 = PERSON_AND_ORGANIZATION_ROLE ( 'design_owner' ) ;
#134 = TOROIDAL_SURFACE ( 'NONE', #167, 2.654999999999999361, 2.000000000000000444 ) ;
#135 = ORIENTED_EDGE ( 'NONE', *, *, #276, .T. ) ;
#136 = CYLINDRICAL_SURFACE ( 'NONE', #142, 0.6549999999999989164 ) ;
#137 = DIRECTION ( 'NONE',  ( 3.491481338843133355E-15, -1.224646799147353207E-16, 1.000000000000000000 ) ) ;
#138 = FACE_OUTER_BOUND ( 'NONE', #173, .T. ) ;
#139 = CARTESIAN_POINT ( 'NONE',  ( 1.745740669421566678E-13, 8.998558695971067645E-33, 50.00000000000000000 ) ) ;
#140 = CC_DESIGN_DATE_AND_TIME_ASSIGNMENT ( #196, #189, ( #273 ) ) ;
#141 = DIRECTION ( 'NONE',  ( 0.0000000000000000000, 1.000000000000000000, 0.0000000000000000000 ) ) ;
#142 = AXIS2_PLACEMENT_3D ( 'NONE', #118, #112, #299 ) ;
#143 = AXIS2_PLACEMENT_3D ( 'NONE', #99, #74, #260 ) ;
#144 = DIRECTION ( 'NONE',  ( 0.0000000000000000000, 1.000000000000000000, 0.0000000000000000000 ) ) ;
#145 = ORIENTED_EDGE ( 'NONE', *, *, #232, .T. ) ;
#146 = DIRECTION ( 'NONE',  ( 0.0000000000000000000, 1.000000000000000000, 0.0000000000000000000 ) ) ;
#147 = ORIENTED_EDGE ( 'NONE', *, *, #75, .F. ) ;
#148 = CIRCLE ( 'NONE', #53, 0.6549999999999994715 ) ;
#149 = APPROVAL_PERSON_ORGANIZATION ( #171, #130, #31 ) ;
#150 = VERTEX_POINT ( 'NONE', #192 ) ;
#151 = PERSON_AND_ORGANIZATION ( #25, #117 ) ;
#152 = EDGE_LOOP ( 'NONE', ( #135 ) ) ;
#153 = DIRECTION ( 'NONE',  ( 0.0000000000000000000, 0.0000000000000000000, 1.000000000000000000 ) ) ;
#154 = ORIENTED_EDGE ( 'NONE', *, *, #122, .F. ) ;
#155 = CLOSED_SHELL ( 'NONE', ( #17, #283, #87, #206, #115, #303, #179, #163 ) ) ;
#156 = PERSON_AND_ORGANIZATION_ROLE ( 'creator' ) ;
#157 = EDGE_CURVE ( 'NONE', #58, #58, #177, .T. ) ;
#158 = PERSON_AND_ORGANIZATION ( #25, #117 ) ;
#159 = ORIENTED_EDGE ( 'NONE', *, *, #122, .T. ) ;
#160 = DIRECTION ( 'NONE',  ( 0.0000000000000000000, 1.000000000000000000, 0.0000000000000000000 ) ) ;
#161 = ORIENTED_EDGE ( 'NONE', *, *, #183, .F. ) ;
#162 = EDGE_LOOP ( 'NONE', ( #211 ) ) ;
#163 = ADVANCED_FACE ( 'NONE', ( #26 ), #52, .F. ) ;
#164 = DIRECTION ( 'NONE',  ( 4.275831445896958607E-31, 1.000000000000000000, 1.224646799147353454E-16 ) ) ;
#165 = CARTESIAN_POINT ( 'NONE',  ( 6.971514272600542350E-14, -2.445278038340942020E-15, 19.96721046462898386 ) ) ;
#166 = DIRECTION ( 'NONE',  ( -3.491481338843133355E-15, 1.224646799147353207E-16, -1.000000000000000000 ) ) ;
#167 = AXIS2_PLACEMENT_3D ( 'NONE', #281, #209, #282 ) ;
#168 = AXIS2_PLACEMENT_3D ( 'NONE', #169, #23, #261 ) ;
#169 = CARTESIAN_POINT ( 'NONE',  ( 2.504511167915743435E-14, -8.784642641776457383E-16, 7.173205080756891228 ) ) ;
#170 = FACE_OUTER_BOUND ( 'NONE', #88, .T. ) ;
#171 = PERSON_AND_ORGANIZATION ( #25, #117 ) ;
#172 = AXIS2_PLACEMENT_3D ( 'NONE', #300, #15, #272 ) ;
#173 = EDGE_LOOP ( 'NONE', ( #245 ) ) ;
#174 = ADVANCED_FACE ( 'NONE', ( #170 ), #97, .F. ) ;
#175 = PERSON_AND_ORGANIZATION_ROLE ( 'classification_officer' ) ;
#176 = DIRECTION ( 'NONE',  ( -4.275831445896958607E-31, -1.000000000000000000, -1.224646799147353207E-16 ) ) ;
#177 = CIRCLE ( 'NONE', #297, 1.499999999999996447 ) ;
#178 = CC_DESIGN_APPROVAL ( #90, ( #273 ) ) ;
#179 = ADVANCED_FACE ( 'NONE', ( #138, #213 ), #208, .T. ) ;
#180 = DIRECTION ( 'NONE',  ( 3.491481338843133355E-15, -1.224646799147353207E-16, 1.000000000000000000 ) ) ;
#181 = EDGE_LOOP ( 'NONE', ( #251 ) ) ;
#182 = DIRECTION ( 'NONE',  ( -3.491481338843133355E-15, 1.224646799147353207E-16, -1.000000000000000000 ) ) ;
#183 = EDGE_CURVE ( 'NONE', #201, #201, #148, .T. ) ;
#184 = DIRECTION ( 'NONE',  ( -3.491481338843133355E-15, 1.224646799147353207E-16, -1.000000000000000000 ) ) ;
#185 = CARTESIAN_POINT ( 'NONE',  ( 2.444036937190193349E-14, -8.572527594031473190E-16, 7.000000000000000000 ) ) ;
#186 = DIRECTION ( 'NONE',  ( 5.101801177184739002E-31, 1.000000000000000000, 1.436029367530471775E-16 ) ) ;
#187 = DIRECTION ( 'NONE',  ( -3.491481338843133355E-15, 1.224646799147353207E-16, -1.000000000000000000 ) ) ;
#188 = AXIS2_PLACEMENT_3D ( 'NONE', #64, #129, #45 ) ;
#189 = DATE_TIME_ROLE ( 'classification_date' ) ;
#190 = VERTEX_POINT ( 'NONE', #120 ) ;
#191 = ORIENTED_EDGE ( 'NONE', *, *, #298, .T. ) ;
#192 = CARTESIAN_POINT ( 'NONE',  ( 1.735266225405037467E-13, 1.499999999999995559, 49.70000000000000284 ) ) ;
#193 = CC_DESIGN_DATE_AND_TIME_ASSIGNMENT ( #62, #128, ( #24 ) ) ;
#194 = AXIS2_PLACEMENT_3D ( 'NONE', #292, #180, #176 ) ;
#195 = CC_DESIGN_APPROVAL ( #104, ( #223 ) ) ;
#196 = DATE_AND_TIME ( #82, #221 ) ;
#197 =( NAMED_UNIT ( * ) PLANE_ANGLE_UNIT ( ) SI_UNIT ( $, .RADIAN. ) );
#198 = DIRECTION ( 'NONE',  ( -4.275831445896958607E-31, -1.000000000000000000, -1.224646799147353207E-16 ) ) ;
#199 = VERTEX_POINT ( 'NONE', #39 ) ;
#200 = CARTESIAN_POINT ( 'NONE',  ( 2.444036937190193349E-14, 5.661593179548498374E-33, 7.000000000000000000 ) ) ;
#201 = VERTEX_POINT ( 'NONE', #248 ) ;
#202 = CONICAL_SURFACE ( 'NONE', #168, 0.6549999999999984723, 0.5235987755982964842 ) ;
#203 = FACE_OUTER_BOUND ( 'NONE', #105, .T. ) ;
#204 = EDGE_LOOP ( 'NONE', ( #4 ) ) ;
#205 = FACE_BOUND ( 'NONE', #18, .T. ) ;
#206 = ADVANCED_FACE ( 'NONE', ( #103, #238 ), #134, .F. ) ;
#207 = CYLINDRICAL_SURFACE ( 'NONE', #1, 1.499999999999998890 ) ;
#208 = CONICAL_SURFACE ( 'NONE', #27, 1.200000000000001732, 0.7853981633974453924 ) ;
#209 = DIRECTION ( 'NONE',  ( -3.491481338843133355E-15, 1.224646799147353207E-16, -1.000000000000000000 ) ) ;
#210 = CARTESIAN_POINT ( 'NONE',  ( 1.745740669421566678E-13, -6.123233995736766085E-15, 50.00000000000000000 ) ) ;
#211 = ORIENTED_EDGE ( 'NONE', *, *, #75, .T. ) ;
#212 = CC_DESIGN_PERSON_AND_ORGANIZATION_ASSIGNMENT ( #66, #249, ( #223 ) ) ;
#213 = FACE_BOUND ( 'NONE', #222, .T. ) ;
#214 = DIRECTION ( 'NONE',  ( 4.275831445896958607E-31, 1.000000000000000000, 1.224646799147353454E-16 ) ) ;
#215 = SHAPE_DEFINITION_REPRESENTATION ( #46, #6 ) ;
#216 = DATE_AND_TIME ( #127, #295 ) ;
#217 = EDGE_CURVE ( 'NONE', #264, #264, #268, .T. ) ;
#218 = COORDINATED_UNIVERSAL_TIME_OFFSET ( 1, 0, .AHEAD. ) ;
#219 = CARTESIAN_POINT ( 'NONE',  ( -1.892735826383160919E-31, 0.6106624327025943488, -5.421010862427522170E-17 ) ) ;
#220 = CIRCLE ( 'NONE', #36, 0.7549999999999987832 ) ;
#221 = LOCAL_TIME ( 15, 3, 42.00000000000000000, #270 ) ;
#222 = EDGE_LOOP ( 'NONE', ( #47 ) ) ;
#223 = PRODUCT_DEFINITION_FORMATION_WITH_SPECIFIED_SOURCE ( 'ANY', '', #79, .NOT_KNOWN. ) ;
#224 = CALENDAR_DATE ( 2021, 1, 12 ) ;
#225 = ORIENTED_EDGE ( 'NONE', *, *, #276, .F. ) ;
#226 = CC_DESIGN_PERSON_AND_ORGANIZATION_ASSIGNMENT ( #263, #156, ( #24 ) ) ;
#227 = AXIS2_PLACEMENT_3D ( 'NONE', #200, #19, #198 ) ;
#228 = CIRCLE ( 'NONE', #269, 1.500000000000001554 ) ;
#229 = PLANE ( 'NONE',  #194 ) ;
#230 = EDGE_LOOP ( 'NONE', ( #191 ) ) ;
#231 = CIRCLE ( 'NONE', #71, 0.6106624327025943488 ) ;
#232 = EDGE_CURVE ( 'NONE', #14, #14, #114, .T. ) ;
#233 = ORIENTED_EDGE ( 'NONE', *, *, #217, .F. ) ;
#234 = CARTESIAN_POINT ( 'NONE',  ( 8.728703347107829444E-16, -3.061616997868381785E-17, 0.2499999999999998890 ) ) ;
#235 = DIRECTION ( 'NONE',  ( -3.491481338843133355E-15, 1.224646799147353207E-16, -1.000000000000000000 ) ) ;
#236 = CC_DESIGN_APPROVAL ( #130, ( #24 ) ) ;
#237 = DIRECTION ( 'NONE',  ( -3.491481338843133355E-15, 1.224646799147353207E-16, -1.000000000000000000 ) ) ;
#238 = FACE_OUTER_BOUND ( 'NONE', #162, .T. ) ;
#239 = DIRECTION ( 'NONE',  ( -3.491481338843133355E-15, 1.224646799147353207E-16, -1.000000000000000000 ) ) ;
#240 = EDGE_LOOP ( 'NONE', ( #77 ) ) ;
#241 = AXIS2_PLACEMENT_3D ( 'NONE', #210, #237, #124 ) ;
#242 = APPROVAL_PERSON_ORGANIZATION ( #89, #104, #244 ) ;
#243 = CARTESIAN_POINT ( 'NONE',  ( 0.0000000000000000000, 0.0000000000000000000, 0.0000000000000000000 ) ) ;
#244 = APPROVAL_ROLE ( '' ) ;
#245 = ORIENTED_EDGE ( 'NONE', *, *, #298, .F. ) ;
#246 = MECHANICAL_CONTEXT ( 'NONE', #44, 'mechanical' ) ;
#247 = EDGE_LOOP ( 'NONE', ( #233 ) ) ;
#248 = CARTESIAN_POINT ( 'NONE',  ( 5.237222008264699402E-14, 0.6549999999999975842, 14.99999999999999822 ) ) ;
#249 = PERSON_AND_ORGANIZATION_ROLE ( 'design_supplier' ) ;
#250 = EDGE_CURVE ( 'NONE', #8, #8, #220, .T. ) ;
#251 = ORIENTED_EDGE ( 'NONE', *, *, #250, .T. ) ;
#252 = APPLICATION_CONTEXT ( 'configuration controlled 3d designs of mechanical parts and assemblies' ) ;
#253 = FACE_OUTER_BOUND ( 'NONE', #13, .T. ) ;
#254 = ORIENTED_EDGE ( 'NONE', *, *, #81, .F. ) ;
#255 = AXIS2_PLACEMENT_3D ( 'NONE', #243, #153, #287 ) ;
#256 = ADVANCED_FACE ( 'NONE', ( #2, #123 ), #259, .T. ) ;
#257 = FACE_OUTER_BOUND ( 'NONE', #240, .T. ) ;
#258 = CARTESIAN_POINT ( 'NONE',  ( 0.0000000000000000000, 0.0000000000000000000, 0.0000000000000000000 ) ) ;
#259 = CYLINDRICAL_SURFACE ( 'NONE', #12, 0.7549999999999992273 ) ;
#260 = DIRECTION ( 'NONE',  ( 0.0000000000000000000, 1.000000000000000000, 0.0000000000000000000 ) ) ;
#261 = DIRECTION ( 'NONE',  ( 0.0000000000000000000, 1.000000000000000000, 0.0000000000000000000 ) ) ;
#262 = APPROVAL_STATUS ( 'not_yet_approved' ) ;
#263 = PERSON_AND_ORGANIZATION ( #25, #117 ) ;
#264 = VERTEX_POINT ( 'NONE', #33 ) ;
#265 = CC_DESIGN_PERSON_AND_ORGANIZATION_ASSIGNMENT ( #293, #133, ( #79 ) ) ;
#266 = CARTESIAN_POINT ( 'NONE',  ( 5.358479882634336420E-14, -1.879501735712543696E-15, 15.34729635533384773 ) ) ;
#267 = APPROVAL_DATE_TIME ( #111, #130 ) ;
#268 = CIRCLE ( 'NONE', #241, 1.200000000000001732 ) ;
#269 = AXIS2_PLACEMENT_3D ( 'NONE', #95, #57, #146 ) ;
#270 = COORDINATED_UNIVERSAL_TIME_OFFSET ( 1, 0, .AHEAD. ) ;
#271 = CC_DESIGN_PERSON_AND_ORGANIZATION_ASSIGNMENT ( #158, #175, ( #273 ) ) ;
#272 = DIRECTION ( 'NONE',  ( 0.0000000000000000000, -1.000000000000000000, 0.0000000000000000000 ) ) ;
#273 = SECURITY_CLASSIFICATION ( '', '', #40 ) ;
#274 = EDGE_LOOP ( 'NONE', ( #161 ) ) ;
#275 = ORIENTED_EDGE ( 'NONE', *, *, #81, .T. ) ;
#276 = EDGE_CURVE ( 'NONE', #199, #199, #278, .T. ) ;
#277 = DIRECTION ( 'NONE',  ( 4.275831445896958607E-31, 1.000000000000000000, 1.224646799147353207E-16 ) ) ;
#278 = CIRCLE ( 'NONE', #143, 0.7549999999999996714 ) ;
#279 = VERTEX_POINT ( 'NONE', #219 ) ;
#280 = DIRECTION ( 'NONE',  ( -3.491481338843133355E-15, 1.224646799147353207E-16, -1.000000000000000000 ) ) ;
#281 = CARTESIAN_POINT ( 'NONE',  ( 5.237222008264700033E-14, -1.734723475976807094E-15, 15.00000000000000000 ) ) ;
#282 = DIRECTION ( 'NONE',  ( 4.275831445896957731E-31, 1.000000000000000000, 1.224646799147353207E-16 ) ) ;
#283 = ADVANCED_FACE ( 'NONE', ( #5, #78 ), #202, .T. ) ;
#284 = CALENDAR_DATE ( 2021, 1, 12 ) ;
#285 = DIRECTION ( 'NONE',  ( -4.275831445896958607E-31, -1.000000000000000000, -1.224646799147353207E-16 ) ) ;
#286 = PERSON_AND_ORGANIZATION ( #25, #117 ) ;
#287 = DIRECTION ( 'NONE',  ( 1.000000000000000000, 0.0000000000000000000, 0.0000000000000000000 ) ) ;
#288 = APPLICATION_PROTOCOL_DEFINITION ( 'international standard', 'config_control_design', 1994, #252 ) ;
#289 = CIRCLE ( 'NONE', #302, 0.6853844939755804333 ) ;
#290 = EDGE_LOOP ( 'NONE', ( #275 ) ) ;
#291 = DATE_AND_TIME ( #284, #60 ) ;
#292 = CARTESIAN_POINT ( 'NONE',  ( 2.444036937190193349E-14, 5.661593179548498374E-33, 7.000000000000000000 ) ) ;
#293 = PERSON_AND_ORGANIZATION ( #25, #117 ) ;
#294 = AXIS2_PLACEMENT_3D ( 'NONE', #22, #137, #119 ) ;
#295 = LOCAL_TIME ( 15, 3, 42.00000000000000000, #107 ) ;
#296 = ORIENTED_EDGE ( 'NONE', *, *, #157, .F. ) ;
#297 = AXIS2_PLACEMENT_3D ( 'NONE', #165, #280, #141 ) ;
#298 = EDGE_CURVE ( 'NONE', #150, #150, #228, .T. ) ;
#299 = DIRECTION ( 'NONE',  ( 4.275831445896958607E-31, 1.000000000000000000, 1.224646799147353207E-16 ) ) ;
#300 = CARTESIAN_POINT ( 'NONE',  ( 6.971514272600542350E-14, -2.445278038340942020E-15, 19.96721046462898386 ) ) ;
#301 = CARTESIAN_POINT ( 'NONE',  ( 1.745740669421566678E-13, -6.123233995736766085E-15, 50.00000000000000000 ) ) ;
#302 = AXIS2_PLACEMENT_3D ( 'NONE', #266, #116, #160 ) ;
#303 = ADVANCED_FACE ( 'NONE', ( #29, #125 ), #207, .T. ) ;
ENDSEC;
END-ISO-10303-21;
