ISO-10303-21;
HEADER;
FILE_DESCRIPTION (( 'STEP AP203' ),
    '1' );
FILE_NAME ('200786.step',
    '2021-12-01T14:03:42',
    ( '' ),
    ( '' ),
    'SwSTEP 2.0',
    'SolidWorks 2019',
    '' );
FILE_SCHEMA (( 'CONFIG_CONTROL_DESIGN' ));
ENDSEC;

DATA;
#1 = EDGE_CURVE ( 'NONE', #274, #274, #111, .T. ) ;
#2 = EDGE_LOOP ( 'NONE', ( #170 ) ) ;
#3 = DIRECTION ( 'NONE',  ( 4.275831445896959482E-31, 1.000000000000000000, 1.224646799147353207E-16 ) ) ;
#4 = CARTESIAN_POINT ( 'NONE',  ( 8.728703347107829444E-16, -3.061616997868381785E-17, 0.2499999999999998890 ) ) ;
#5 = ORIENTED_EDGE ( 'NONE', *, *, #76, .F. ) ;
#6 = DIRECTION ( 'NONE',  ( 0.0000000000000000000, 1.000000000000000000, 0.0000000000000000000 ) ) ;
#7 = ORIENTED_EDGE ( 'NONE', *, *, #90, .F. ) ;
#8 = DIRECTION ( 'NONE',  ( -3.491481338843133355E-15, 1.224646799147353207E-16, -1.000000000000000000 ) ) ;
#9 = AXIS2_PLACEMENT_3D ( 'NONE', #266, #129, #179 ) ;
#10 = AXIS2_PLACEMENT_3D ( 'NONE', #228, #232, #185 ) ;
#11 = DIRECTION ( 'NONE',  ( -3.491481338843133355E-15, 1.224646799147353207E-16, -1.000000000000000000 ) ) ;
#12 = VERTEX_POINT ( 'NONE', #17 ) ;
#13 = ORIENTED_EDGE ( 'NONE', *, *, #47, .T. ) ;
#14 = CC_DESIGN_PERSON_AND_ORGANIZATION_ASSIGNMENT ( #159, #230, ( #257 ) ) ;
#15 = CALENDAR_DATE ( 2021, 1, 12 ) ;
#16 = LOCAL_TIME ( 15, 3, 42.00000000000000000, #301 ) ;
#17 = CARTESIAN_POINT ( 'NONE',  ( 3.582192684931459116E-14, 1.099999999999997868, 10.25980762113533729 ) ) ;
#18 = CC_DESIGN_PERSON_AND_ORGANIZATION_ASSIGNMENT ( #210, #166, ( #268 ) ) ;
#19 = VERTEX_POINT ( 'NONE', #226 ) ;
#20 = ORIENTED_EDGE ( 'NONE', *, *, #175, .T. ) ;
#21 = EDGE_LOOP ( 'NONE', ( #7 ) ) ;
#22 = DATE_TIME_ROLE ( 'creation_date' ) ;
#23 = EDGE_LOOP ( 'NONE', ( #52 ) ) ;
#24 = DATE_AND_TIME ( #169, #298 ) ;
#25 = CIRCLE ( 'NONE', #131, 1.099999999999999201 ) ;
#26 = ADVANCED_FACE ( 'NONE', ( #37, #238 ), #151, .T. ) ;
#27 = CIRCLE ( 'NONE', #200, 1.100000000000000089 ) ;
#28 = ORIENTED_EDGE ( 'NONE', *, *, #171, .T. ) ;
#29 = CARTESIAN_POINT ( 'NONE',  ( 7.104220552055901835E-14, -2.491825135286219831E-15, 20.34729635533384595 ) ) ;
#30 = FACE_OUTER_BOUND ( 'NONE', #109, .T. ) ;
#31 = EDGE_LOOP ( 'NONE', ( #28 ) ) ;
#32 = FACE_OUTER_BOUND ( 'NONE', #148, .T. ) ;
#33 = EDGE_CURVE ( 'NONE', #65, #65, #116, .T. ) ;
#34 = CYLINDRICAL_SURFACE ( 'NONE', #36, 1.099999999999999645 ) ;
#35 = DIRECTION ( 'NONE',  ( 3.491481338843133355E-15, -1.224646799147353207E-16, 1.000000000000000000 ) ) ;
#36 = AXIS2_PLACEMENT_3D ( 'NONE', #253, #8, #202 ) ;
#37 = FACE_OUTER_BOUND ( 'NONE', #136, .T. ) ;
#38 = CARTESIAN_POINT ( 'NONE',  ( 3.491481338843133355E-14, 1.249999999999998890, 10.00000000000000000 ) ) ;
#39 = APPROVAL_ROLE ( '' ) ;
#40 = EDGE_LOOP ( 'NONE', ( #237 ) ) ;
#41 = MANIFOLD_SOLID_BREP ( 'Corps-Déplacer/Copier1[1]', #262 ) ;
#42 = CC_DESIGN_APPROVAL ( #180, ( #137 ) ) ;
#43 = AXIS2_PLACEMENT_3D ( 'NONE', #4, #48, #56 ) ;
#44 = VERTEX_POINT ( 'NONE', #133 ) ;
#45 = VERTEX_POINT ( 'NONE', #38 ) ;
#46 = APPROVAL_DATE_TIME ( #24, #297 ) ;
#47 = EDGE_CURVE ( 'NONE', #160, #160, #138, .T. ) ;
#48 = DIRECTION ( 'NONE',  ( -3.491481338843133355E-15, 1.224646799147353207E-16, -1.000000000000000000 ) ) ;
#49 = PERSON_AND_ORGANIZATION_ROLE ( 'creator' ) ;
#50 = ADVANCED_FACE ( 'NONE', ( #220, #59 ), #233, .T. ) ;
#51 = PERSON_AND_ORGANIZATION ( #190, #195 ) ;
#52 = ORIENTED_EDGE ( 'NONE', *, *, #33, .F. ) ;
#53 = DIRECTION ( 'NONE',  ( 0.0000000000000000000, 1.000000000000000000, 0.0000000000000000000 ) ) ;
#54 = DIRECTION ( 'NONE',  ( 4.275831445896958607E-31, 1.000000000000000000, 1.224646799147353207E-16 ) ) ;
#55 = DIRECTION ( 'NONE',  ( 3.491481338843133355E-15, -1.224646799147353207E-16, 1.000000000000000000 ) ) ;
#56 = DIRECTION ( 'NONE',  ( 4.622231866529370426E-31, 1.000000000000000000, 1.301042606982606553E-16 ) ) ;
#57 = CIRCLE ( 'NONE', #277, 1.499999999999996669 ) ;
#58 = CARTESIAN_POINT ( 'NONE',  ( -2.363813099148341650E-31, 8.291140248837120869E-33, -6.770229795733541792E-17 ) ) ;
#59 = FACE_OUTER_BOUND ( 'NONE', #89, .T. ) ;
#60 = FACE_OUTER_BOUND ( 'NONE', #104, .T. ) ;
#61 = DIRECTION ( 'NONE',  ( 4.275831445896958607E-31, 1.000000000000000000, 1.224646799147353207E-16 ) ) ;
#62 = FACE_BOUND ( 'NONE', #21, .T. ) ;
#63 = APPROVAL_PERSON_ORGANIZATION ( #118, #180, #39 ) ;
#64 = CARTESIAN_POINT ( 'NONE',  ( 0.0000000000000000000, 0.0000000000000000000, 0.0000000000000000000 ) ) ;
#65 = VERTEX_POINT ( 'NONE', #83 ) ;
#66 = CARTESIAN_POINT ( 'NONE',  ( 7.836102670519129938E-14, 1.499999999999994005, 22.44349005489899795 ) ) ;
#67 = AXIS2_PLACEMENT_3D ( 'NONE', #289, #55, #290 ) ;
#68 = CC_DESIGN_PERSON_AND_ORGANIZATION_ASSIGNMENT ( #117, #49, ( #137 ) ) ;
#69 = DATE_AND_TIME ( #191, #212 ) ;
#70 = ORIENTED_EDGE ( 'NONE', *, *, #295, .F. ) ;
#71 = APPROVAL_STATUS ( 'not_yet_approved' ) ;
#72 = APPLICATION_CONTEXT ( 'configuration controlled 3d designs of mechanical parts and assemblies' ) ;
#73 = PERSON_AND_ORGANIZATION ( #190, #195 ) ;
#74 = APPROVAL_PERSON_ORGANIZATION ( #188, #275, #302 ) ;
#75 = CARTESIAN_POINT ( 'NONE',  ( 3.582192684931459116E-14, -1.256464056309101033E-15, 10.25980762113533729 ) ) ;
#76 = EDGE_CURVE ( 'NONE', #88, #88, #27, .T. ) ;
#77 = DIRECTION ( 'NONE',  ( 3.491481338843133355E-15, -1.224646799147353207E-16, 1.000000000000000000 ) ) ;
#78 = CC_DESIGN_APPROVAL ( #275, ( #268 ) ) ;
#79 = DIRECTION ( 'NONE',  ( -3.491481338843133355E-15, 1.224646799147353207E-16, -1.000000000000000000 ) ) ;
#80 = EDGE_LOOP ( 'NONE', ( #282 ) ) ;
#81 = ADVANCED_FACE ( 'NONE', ( #132, #225 ), #107, .T. ) ;
#82 = DIRECTION ( 'NONE',  ( -3.491481338843133355E-15, 1.224646799147353207E-16, -1.000000000000000000 ) ) ;
#83 = CARTESIAN_POINT ( 'NONE',  ( 8.728703347107835360E-16, 1.249999999999998890, 0.2500000000000000555 ) ) ;
#84 =( NAMED_UNIT ( * ) SI_UNIT ( $, .STERADIAN. ) SOLID_ANGLE_UNIT ( ) );
#85 = DATE_AND_TIME ( #15, #157 ) ;
#86 = EDGE_CURVE ( 'NONE', #44, #44, #167, .T. ) ;
#87 = APPLICATION_CONTEXT ( 'configuration controlled 3d designs of mechanical parts and assemblies' ) ;
#88 = VERTEX_POINT ( 'NONE', #292 ) ;
#89 = EDGE_LOOP ( 'NONE', ( #13 ) ) ;
#90 = EDGE_CURVE ( 'NONE', #19, #19, #288, .T. ) ;
#91 = MECHANICAL_CONTEXT ( 'NONE', #72, 'mechanical' ) ;
#92 = APPROVAL_PERSON_ORGANIZATION ( #51, #297, #173 ) ;
#93 = EDGE_LOOP ( 'NONE', ( #20 ) ) ;
#94 = PERSON_AND_ORGANIZATION_ROLE ( 'design_supplier' ) ;
#95 = PERSON_AND_ORGANIZATION_ROLE ( 'creator' ) ;
#96 = DIRECTION ( 'NONE',  ( 4.275831445896958607E-31, 1.000000000000000000, 1.224646799147353454E-16 ) ) ;
#97 = ORIENTED_EDGE ( 'NONE', *, *, #171, .F. ) ;
#98 = COORDINATED_UNIVERSAL_TIME_OFFSET ( 1, 0, .AHEAD. ) ;
#99 = AXIS2_PLACEMENT_3D ( 'NONE', #287, #11, #285 ) ;
#100 = CARTESIAN_POINT ( 'NONE',  ( 1.735266225405037467E-13, -6.086494591762345225E-15, 49.70000000000000284 ) ) ;
#101 = CALENDAR_DATE ( 2021, 1, 12 ) ;
#102 = CARTESIAN_POINT ( 'NONE',  ( 6.982962677686266711E-14, -2.449293598294706513E-15, 20.00000000000000000 ) ) ;
#103 = EDGE_LOOP ( 'NONE', ( #211 ) ) ;
#104 = EDGE_LOOP ( 'NONE', ( #127 ) ) ;
#105 = LOCAL_TIME ( 15, 3, 42.00000000000000000, #143 ) ;
#106 = ORIENTED_EDGE ( 'NONE', *, *, #86, .F. ) ;
#107 = CYLINDRICAL_SURFACE ( 'NONE', #247, 1.249999999999999556 ) ;
#108 = CARTESIAN_POINT ( 'NONE',  ( 6.982962677686266711E-14, -2.602085213965210642E-15, 20.00000000000000000 ) ) ;
#109 = EDGE_LOOP ( 'NONE', ( #97 ) ) ;
#110 = CARTESIAN_POINT ( 'NONE',  ( 1.745740669421566678E-13, -6.123233995736766085E-15, 50.00000000000000000 ) ) ;
#111 = CIRCLE ( 'NONE', #248, 1.105662432702594566 ) ;
#112 = CONICAL_SURFACE ( 'NONE', #99, 1.200000000000001732, 0.7853981633974453924 ) ;
#113 = DIRECTION ( 'NONE',  ( 0.0000000000000000000, 1.000000000000000000, 0.0000000000000000000 ) ) ;
#114 = DIRECTION ( 'NONE',  ( -3.491481338843133355E-15, 1.224646799147353207E-16, -1.000000000000000000 ) ) ;
#115 = CIRCLE ( 'NONE', #174, 1.250000000000000222 ) ;
#116 = CIRCLE ( 'NONE', #43, 1.249999999999998890 ) ;
#117 = PERSON_AND_ORGANIZATION ( #190, #195 ) ;
#118 = PERSON_AND_ORGANIZATION ( #190, #195 ) ;
#119 = PERSON_AND_ORGANIZATION ( #190, #195 ) ;
#120 = EDGE_LOOP ( 'NONE', ( #224 ) ) ;
#121 = EDGE_LOOP ( 'NONE', ( #106 ) ) ;
#122 = DATE_TIME_ROLE ( 'classification_date' ) ;
#123 = SECURITY_CLASSIFICATION_LEVEL ( 'unclassified' ) ;
#124 = CARTESIAN_POINT ( 'NONE',  ( -4.727626198296683300E-31, 1.658228049767424174E-32, -1.354045959146708358E-16 ) ) ;
#125 = DIRECTION ( 'NONE',  ( -3.491481338843133355E-15, 1.224646799147353207E-16, -1.000000000000000000 ) ) ;
#126 = CARTESIAN_POINT ( 'NONE',  ( 7.836102670519129938E-14, -2.748534825742751230E-15, 22.44349005489899795 ) ) ;
#127 = ORIENTED_EDGE ( 'NONE', *, *, #47, .F. ) ;
#128 = CARTESIAN_POINT ( 'NONE',  ( 3.491481338843133355E-14, 9.373498641636593628E-33, 10.00000000000000000 ) ) ;
#129 = DIRECTION ( 'NONE',  ( -3.491481338843133355E-15, 1.224646799147353207E-16, -1.000000000000000000 ) ) ;
#130 = CC_DESIGN_DATE_AND_TIME_ASSIGNMENT ( #235, #22, ( #137 ) ) ;
#131 = AXIS2_PLACEMENT_3D ( 'NONE', #75, #79, #53 ) ;
#132 = FACE_OUTER_BOUND ( 'NONE', #23, .T. ) ;
#133 = CARTESIAN_POINT ( 'NONE',  ( 1.745740669421566678E-13, 1.199999999999995515, 50.00000000000000000 ) ) ;
#134 = PRODUCT_DEFINITION_SHAPE ( 'NONE', 'NONE',  #137 ) ;
#135 = COORDINATED_UNIVERSAL_TIME_OFFSET ( 1, 0, .AHEAD. ) ;
#136 = EDGE_LOOP ( 'NONE', ( #70 ) ) ;
#137 = PRODUCT_DEFINITION ( 'UNKNOWN', '', #164, #208 ) ;
#138 = CIRCLE ( 'NONE', #213, 1.500000000000001554 ) ;
#139 = APPLICATION_PROTOCOL_DEFINITION ( 'international standard', 'config_control_design', 1994, #72 ) ;
#140 = ADVANCED_FACE ( 'NONE', ( #198 ), #197, .F. ) ;
#141 = UNCERTAINTY_MEASURE_WITH_UNIT (LENGTH_MEASURE( 1.000000000000000082E-05 ), #258, 'distance_accuracy_value', 'NONE');
#142 = CARTESIAN_POINT ( 'NONE',  ( 3.582192684931459116E-14, -1.256464056309101033E-15, 10.25980762113533729 ) ) ;
#143 = COORDINATED_UNIVERSAL_TIME_OFFSET ( 1, 0, .AHEAD. ) ;
#144 = ORIENTED_EDGE ( 'NONE', *, *, #1, .T. ) ;
#145 = EDGE_CURVE ( 'NONE', #45, #45, #115, .T. ) ;
#146 = TOROIDAL_SURFACE ( 'NONE', #281, 3.100000000000000533, 2.000000000000000888 ) ;
#147 = ADVANCED_FACE ( 'NONE', ( #222, #270 ), #241, .T. ) ;
#148 = EDGE_LOOP ( 'NONE', ( #5 ) ) ;
#149 = DIRECTION ( 'NONE',  ( -4.275831445896958607E-31, -1.000000000000000000, -1.224646799147353207E-16 ) ) ;
#150 = DIRECTION ( 'NONE',  ( -3.491481338843133355E-15, 1.224646799147353207E-16, -1.000000000000000000 ) ) ;
#151 = CONICAL_SURFACE ( 'NONE', #269, 1.099999999999999201, 0.5235987755982934866 ) ;
#152 = FACE_OUTER_BOUND ( 'NONE', #120, .T. ) ;
#153 = CC_DESIGN_PERSON_AND_ORGANIZATION_ASSIGNMENT ( #119, #94, ( #164 ) ) ;
#154 = DIRECTION ( 'NONE',  ( -3.491481338843133355E-15, 1.224646799147353207E-16, -1.000000000000000000 ) ) ;
#155 = FACE_OUTER_BOUND ( 'NONE', #194, .T. ) ;
#156 = ORIENTED_EDGE ( 'NONE', *, *, #86, .T. ) ;
#157 = LOCAL_TIME ( 15, 3, 42.00000000000000000, #135 ) ;
#158 = APPROVAL_STATUS ( 'not_yet_approved' ) ;
#159 = PERSON_AND_ORGANIZATION ( #190, #195 ) ;
#160 = VERTEX_POINT ( 'NONE', #291 ) ;
#161 = ADVANCED_FACE ( 'NONE', ( #177 ), #216, .T. ) ;
#162 = CARTESIAN_POINT ( 'NONE',  ( 3.491481338843133355E-14, -1.224646799147353256E-15, 10.00000000000000000 ) ) ;
#163 = CLOSED_SHELL ( 'NONE', ( #240, #147, #81, #161 ) ) ;
#164 = PRODUCT_DEFINITION_FORMATION_WITH_SPECIFIED_SOURCE ( 'ANY', '', #257, .NOT_KNOWN. ) ;
#165 = DIRECTION ( 'NONE',  ( 0.0000000000000000000, 1.000000000000000000, 0.0000000000000000000 ) ) ;
#166 = PERSON_AND_ORGANIZATION_ROLE ( 'classification_officer' ) ;
#167 = CIRCLE ( 'NONE', #303, 1.200000000000001732 ) ;
#168 = ADVANCED_FACE ( 'NONE', ( #60, #244 ), #112, .T. ) ;
#169 = CALENDAR_DATE ( 2021, 1, 12 ) ;
#170 = ORIENTED_EDGE ( 'NONE', *, *, #175, .F. ) ;
#171 = EDGE_CURVE ( 'NONE', #12, #12, #25, .T. ) ;
#172 = ADVANCED_FACE ( 'NONE', ( #30, #265 ), #34, .T. ) ;
#173 = APPROVAL_ROLE ( '' ) ;
#174 = AXIS2_PLACEMENT_3D ( 'NONE', #267, #154, #251 ) ;
#175 = EDGE_CURVE ( 'NONE', #276, #276, #57, .T. ) ;
#176 = DIRECTION ( 'NONE',  ( 0.0000000000000000000, 1.000000000000000000, 0.0000000000000000000 ) ) ;
#177 = FACE_OUTER_BOUND ( 'NONE', #103, .T. ) ;
#178 = PLANE ( 'NONE',  #283 ) ;
#179 = DIRECTION ( 'NONE',  ( 4.275831445896958607E-31, 1.000000000000000000, 1.224646799147353207E-16 ) ) ;
#180 = APPROVAL ( #158, 'UNSPECIFIED' ) ;
#181 = FACE_OUTER_BOUND ( 'NONE', #214, .T. ) ;
#182 = DIRECTION ( 'NONE',  ( -3.491481338843133355E-15, 1.224646799147353207E-16, -1.000000000000000000 ) ) ;
#183 =( GEOMETRIC_REPRESENTATION_CONTEXT ( 3 ) GLOBAL_UNCERTAINTY_ASSIGNED_CONTEXT ( ( #141 ) ) GLOBAL_UNIT_ASSIGNED_CONTEXT ( ( #258, #255, #84 ) ) REPRESENTATION_CONTEXT ( 'NONE', 'WORKASPACE' ) );
#184 = APPROVAL_DATE_TIME ( #85, #180 ) ;
#185 = DIRECTION ( 'NONE',  ( 0.0000000000000000000, -1.000000000000000000, 0.0000000000000000000 ) ) ;
#186 = CONICAL_SURFACE ( 'NONE', #10, 1.499999999999996669, 0.1745329251994265918 ) ;
#187 = AXIS2_PLACEMENT_3D ( 'NONE', #162, #182, #165 ) ;
#188 = PERSON_AND_ORGANIZATION ( #190, #195 ) ;
#189 = ADVANCED_FACE ( 'NONE', ( #32, #181 ), #146, .F. ) ;
#190 = PERSON ( 'UNSPECIFIED', 'UNSPECIFIED', 'UNSPECIFIED', ('UNSPECIFIED'), ('UNSPECIFIED'), ('UNSPECIFIED') ) ;
#191 = CALENDAR_DATE ( 2021, 1, 12 ) ;
#192 = CC_DESIGN_DATE_AND_TIME_ASSIGNMENT ( #69, #122, ( #268 ) ) ;
#193 = EDGE_LOOP ( 'NONE', ( #156 ) ) ;
#194 = EDGE_LOOP ( 'NONE', ( #144 ) ) ;
#195 = ORGANIZATION ( 'UNSPECIFIED', 'UNSPECIFIED', '' ) ;
#196 = EDGE_LOOP ( 'NONE', ( #279 ) ) ;
#197 = PLANE ( 'NONE',  #9 ) ;
#198 = FACE_OUTER_BOUND ( 'NONE', #121, .T. ) ;
#199 = CARTESIAN_POINT ( 'NONE',  ( 3.491481338843133355E-14, 9.373498641636593628E-33, 10.00000000000000000 ) ) ;
#200 = AXIS2_PLACEMENT_3D ( 'NONE', #102, #114, #6 ) ;
#201 = AXIS2_PLACEMENT_3D ( 'NONE', #250, #263, #96 ) ;
#202 = DIRECTION ( 'NONE',  ( 4.275831445896958607E-31, 1.000000000000000000, 1.224646799147353207E-16 ) ) ;
#203 = CARTESIAN_POINT ( 'NONE',  ( 0.0000000000000000000, 0.0000000000000000000, 0.0000000000000000000 ) ) ;
#204 = ADVANCED_BREP_SHAPE_REPRESENTATION ( '200786', ( #41, #252, #223 ), #183 ) ;
#205 = CARTESIAN_POINT ( 'NONE',  ( 3.491481338843133355E-14, 1.249999999999998890, 10.00000000000000000 ) ) ;
#206 = DIRECTION ( 'NONE',  ( -4.275831445896958607E-31, -1.000000000000000000, -1.224646799147353207E-16 ) ) ;
#207 = AXIS2_PLACEMENT_3D ( 'NONE', #29, #125, #113 ) ;
#208 = DESIGN_CONTEXT ( 'detailed design', #87, 'design' ) ;
#209 = DIRECTION ( 'NONE',  ( 0.0000000000000000000, 1.000000000000000000, 0.0000000000000000000 ) ) ;
#210 = PERSON_AND_ORGANIZATION ( #190, #195 ) ;
#211 = ORIENTED_EDGE ( 'NONE', *, *, #145, .F. ) ;
#212 = LOCAL_TIME ( 15, 3, 42.00000000000000000, #243 ) ;
#213 = AXIS2_PLACEMENT_3D ( 'NONE', #100, #231, #227 ) ;
#214 = EDGE_LOOP ( 'NONE', ( #242 ) ) ;
#215 = DIRECTION ( 'NONE',  ( -3.491481338843133355E-15, 1.224646799147353207E-16, -1.000000000000000000 ) ) ;
#216 = PLANE ( 'NONE',  #234 ) ;
#217 = AXIS2_PLACEMENT_3D ( 'NONE', #128, #221, #206 ) ;
#218 = DIRECTION ( 'NONE',  ( 0.0000000000000000000, 1.000000000000000000, 0.0000000000000000000 ) ) ;
#219 = PRODUCT_RELATED_PRODUCT_CATEGORY ( 'detail', '', ( #257 ) ) ;
#220 = FACE_OUTER_BOUND ( 'NONE', #2, .T. ) ;
#221 = DIRECTION ( 'NONE',  ( 3.491481338843133355E-15, -1.224646799147353207E-16, 1.000000000000000000 ) ) ;
#222 = FACE_BOUND ( 'NONE', #80, .T. ) ;
#223 = AXIS2_PLACEMENT_3D ( 'NONE', #64, #278, #296 ) ;
#224 = ORIENTED_EDGE ( 'NONE', *, *, #295, .T. ) ;
#225 = FACE_OUTER_BOUND ( 'NONE', #284, .T. ) ;
#226 = CARTESIAN_POINT ( 'NONE',  ( 7.104220552055901835E-14, 1.130384493975577831, 20.34729635533384595 ) ) ;
#227 = DIRECTION ( 'NONE',  ( 0.0000000000000000000, 1.000000000000000000, 0.0000000000000000000 ) ) ;
#228 = CARTESIAN_POINT ( 'NONE',  ( 7.836102670519129938E-14, -2.748534825742751230E-15, 22.44349005489899795 ) ) ;
#229 = CIRCLE ( 'NONE', #187, 1.250000000000000222 ) ;
#230 = PERSON_AND_ORGANIZATION_ROLE ( 'design_owner' ) ;
#231 = DIRECTION ( 'NONE',  ( -3.491481338843133355E-15, 1.224646799147353207E-16, -1.000000000000000000 ) ) ;
#232 = DIRECTION ( 'NONE',  ( 3.491481338843133355E-15, -1.224646799147353207E-16, 1.000000000000000000 ) ) ;
#233 = CYLINDRICAL_SURFACE ( 'NONE', #201, 1.499999999999999112 ) ;
#234 = AXIS2_PLACEMENT_3D ( 'NONE', #199, #77, #246 ) ;
#235 = DATE_AND_TIME ( #239, #105 ) ;
#236 = DATE_AND_TIME ( #101, #16 ) ;
#237 = ORIENTED_EDGE ( 'NONE', *, *, #76, .T. ) ;
#238 = FACE_BOUND ( 'NONE', #31, .T. ) ;
#239 = CALENDAR_DATE ( 2021, 1, 12 ) ;
#240 = ADVANCED_FACE ( 'NONE', ( #155 ), #178, .F. ) ;
#241 = CONICAL_SURFACE ( 'NONE', #67, 1.249999999999998890, 0.5235987755982927094 ) ;
#242 = ORIENTED_EDGE ( 'NONE', *, *, #90, .T. ) ;
#243 = COORDINATED_UNIVERSAL_TIME_OFFSET ( 1, 0, .AHEAD. ) ;
#244 = FACE_BOUND ( 'NONE', #193, .T. ) ;
#245 = ADVANCED_FACE ( 'NONE', ( #152 ), #249, .F. ) ;
#246 = DIRECTION ( 'NONE',  ( -4.275831445896958607E-31, -1.000000000000000000, -1.224646799147353207E-16 ) ) ;
#247 = AXIS2_PLACEMENT_3D ( 'NONE', #203, #286, #3 ) ;
#248 = AXIS2_PLACEMENT_3D ( 'NONE', #124, #215, #54 ) ;
#249 = PLANE ( 'NONE',  #217 ) ;
#250 = CARTESIAN_POINT ( 'NONE',  ( 0.0000000000000000000, 0.0000000000000000000, 0.0000000000000000000 ) ) ;
#251 = DIRECTION ( 'NONE',  ( 0.0000000000000000000, 1.000000000000000000, 0.0000000000000000000 ) ) ;
#252 = MANIFOLD_SOLID_BREP ( 'Corps-Déplacer/Copier1[2]', #163 ) ;
#253 = CARTESIAN_POINT ( 'NONE',  ( 0.0000000000000000000, 0.0000000000000000000, 0.0000000000000000000 ) ) ;
#254 = CC_DESIGN_SECURITY_CLASSIFICATION ( #268, ( #164 ) ) ;
#255 =( NAMED_UNIT ( * ) PLANE_ANGLE_UNIT ( ) SI_UNIT ( $, .RADIAN. ) );
#256 = APPLICATION_PROTOCOL_DEFINITION ( 'international standard', 'config_control_design', 1994, #87 ) ;
#257 = PRODUCT ( '200786', '200786', '', ( #91 ) ) ;
#258 =( LENGTH_UNIT ( ) NAMED_UNIT ( * ) SI_UNIT ( .MILLI., .METRE. ) );
#259 = VERTEX_POINT ( 'NONE', #205 ) ;
#260 = CC_DESIGN_PERSON_AND_ORGANIZATION_ASSIGNMENT ( #73, #95, ( #164 ) ) ;
#261 = APPROVAL_STATUS ( 'not_yet_approved' ) ;
#262 = CLOSED_SHELL ( 'NONE', ( #245, #26, #172, #189, #293, #50, #168, #140 ) ) ;
#263 = DIRECTION ( 'NONE',  ( -3.491481338843133355E-15, 1.224646799147353207E-16, -1.000000000000000000 ) ) ;
#264 = SHAPE_DEFINITION_REPRESENTATION ( #134, #204 ) ;
#265 = FACE_OUTER_BOUND ( 'NONE', #40, .T. ) ;
#266 = CARTESIAN_POINT ( 'NONE',  ( 1.745740669421566678E-13, 8.998558695971067645E-33, 50.00000000000000000 ) ) ;
#267 = CARTESIAN_POINT ( 'NONE',  ( 3.491481338843133355E-14, -1.224646799147353256E-15, 10.00000000000000000 ) ) ;
#268 = SECURITY_CLASSIFICATION ( '', '', #123 ) ;
#269 = AXIS2_PLACEMENT_3D ( 'NONE', #142, #280, #209 ) ;
#270 = FACE_OUTER_BOUND ( 'NONE', #196, .T. ) ;
#271 = DIRECTION ( 'NONE',  ( -3.491481338843133355E-15, 1.224646799147353207E-16, -1.000000000000000000 ) ) ;
#272 = CARTESIAN_POINT ( 'NONE',  ( 0.0000000000000000000, 1.105662432702594566, 0.0000000000000000000 ) ) ;
#273 = CC_DESIGN_APPROVAL ( #297, ( #164 ) ) ;
#274 = VERTEX_POINT ( 'NONE', #272 ) ;
#275 = APPROVAL ( #261, 'UNSPECIFIED' ) ;
#276 = VERTEX_POINT ( 'NONE', #66 ) ;
#277 = AXIS2_PLACEMENT_3D ( 'NONE', #126, #82, #218 ) ;
#278 = DIRECTION ( 'NONE',  ( 0.0000000000000000000, 0.0000000000000000000, 1.000000000000000000 ) ) ;
#279 = ORIENTED_EDGE ( 'NONE', *, *, #33, .T. ) ;
#280 = DIRECTION ( 'NONE',  ( -3.491481338843133355E-15, 1.224646799147353207E-16, -1.000000000000000000 ) ) ;
#281 = AXIS2_PLACEMENT_3D ( 'NONE', #108, #271, #61 ) ;
#282 = ORIENTED_EDGE ( 'NONE', *, *, #1, .F. ) ;
#283 = AXIS2_PLACEMENT_3D ( 'NONE', #58, #35, #149 ) ;
#284 = EDGE_LOOP ( 'NONE', ( #300 ) ) ;
#285 = DIRECTION ( 'NONE',  ( 0.0000000000000000000, 1.000000000000000000, 0.0000000000000000000 ) ) ;
#286 = DIRECTION ( 'NONE',  ( -3.491481338843133355E-15, 1.224646799147353207E-16, -1.000000000000000000 ) ) ;
#287 = CARTESIAN_POINT ( 'NONE',  ( 1.745740669421566678E-13, -6.123233995736766085E-15, 50.00000000000000000 ) ) ;
#288 = CIRCLE ( 'NONE', #207, 1.130384493975580273 ) ;
#289 = CARTESIAN_POINT ( 'NONE',  ( 8.728703347107829444E-16, -3.061616997868381785E-17, 0.2499999999999998890 ) ) ;
#290 = DIRECTION ( 'NONE',  ( -4.622231866529370426E-31, -1.000000000000000000, -1.301042606982606553E-16 ) ) ;
#291 = CARTESIAN_POINT ( 'NONE',  ( 1.735266225405037467E-13, 1.499999999999995559, 49.70000000000000284 ) ) ;
#292 = CARTESIAN_POINT ( 'NONE',  ( 6.982962677686266711E-14, 1.099999999999997646, 20.00000000000000000 ) ) ;
#293 = ADVANCED_FACE ( 'NONE', ( #62, #294 ), #186, .T. ) ;
#294 = FACE_OUTER_BOUND ( 'NONE', #93, .T. ) ;
#295 = EDGE_CURVE ( 'NONE', #259, #259, #229, .T. ) ;
#296 = DIRECTION ( 'NONE',  ( 1.000000000000000000, 0.0000000000000000000, 0.0000000000000000000 ) ) ;
#297 = APPROVAL ( #71, 'UNSPECIFIED' ) ;
#298 = LOCAL_TIME ( 15, 3, 42.00000000000000000, #98 ) ;
#299 = APPROVAL_DATE_TIME ( #236, #275 ) ;
#300 = ORIENTED_EDGE ( 'NONE', *, *, #145, .T. ) ;
#301 = COORDINATED_UNIVERSAL_TIME_OFFSET ( 1, 0, .AHEAD. ) ;
#302 = APPROVAL_ROLE ( '' ) ;
#303 = AXIS2_PLACEMENT_3D ( 'NONE', #110, #150, #176 ) ;
ENDSEC;
END-ISO-10303-21;
