ISO-10303-21;
HEADER;
FILE_DESCRIPTION (( 'STEP AP203' ),
    '1' );
FILE_NAME ('200785.step',
    '2021-12-01T14:03:41',
    ( '' ),
    ( '' ),
    'SwSTEP 2.0',
    'SolidWorks 2019',
    '' );
FILE_SCHEMA (( 'CONFIG_CONTROL_DESIGN' ));
ENDSEC;

DATA;
#1 = CARTESIAN_POINT ( 'NONE',  ( 2.793185071074506684E-14, -9.797174393178825657E-16, 8.000000000000000000 ) ) ;
#2 = CC_DESIGN_PERSON_AND_ORGANIZATION_ASSIGNMENT ( #138, #196, ( #70 ) ) ;
#3 = FACE_OUTER_BOUND ( 'NONE', #276, .T. ) ;
#4 = VERTEX_POINT ( 'NONE', #107 ) ;
#5 = DIRECTION ( 'NONE',  ( 4.275831445896958607E-31, 1.000000000000000000, 1.224646799147353207E-16 ) ) ;
#6 = PLANE ( 'NONE',  #84 ) ;
#7 = CARTESIAN_POINT ( 'NONE',  ( -3.658668336822444086E-31, 1.283288104101959772E-32, -1.047884259359869995E-16 ) ) ;
#8 = CARTESIAN_POINT ( 'NONE',  ( 2.793185071074506684E-14, 0.9999999999999988898, 8.000000000000000000 ) ) ;
#9 = EDGE_LOOP ( 'NONE', ( #43 ) ) ;
#10 = AXIS2_PLACEMENT_3D ( 'NONE', #256, #189, #265 ) ;
#11 = CARTESIAN_POINT ( 'NONE',  ( 7.632835768763412300E-14, -2.677238394099722734E-15, 21.86131050980348078 ) ) ;
#12 = COORDINATED_UNIVERSAL_TIME_OFFSET ( 1, 0, .AHEAD. ) ;
#13 = EDGE_CURVE ( 'NONE', #28, #28, #117, .T. ) ;
#14 = CLOSED_SHELL ( 'NONE', ( #145, #72, #292, #202, #238, #243, #129, #184 ) ) ;
#15 = DATE_TIME_ROLE ( 'classification_date' ) ;
#16 = ORIENTED_EDGE ( 'NONE', *, *, #13, .T. ) ;
#17 = FACE_OUTER_BOUND ( 'NONE', #264, .T. ) ;
#18 = DESIGN_CONTEXT ( 'detailed design', #29, 'design' ) ;
#19 = CYLINDRICAL_SURFACE ( 'NONE', #251, 1.499999999999999112 ) ;
#20 = APPROVAL_ROLE ( '' ) ;
#21 = ORIENTED_EDGE ( 'NONE', *, *, #174, .F. ) ;
#22 = EDGE_CURVE ( 'NONE', #4, #4, #79, .T. ) ;
#23 = VERTEX_POINT ( 'NONE', #148 ) ;
#24 = VERTEX_POINT ( 'NONE', #182 ) ;
#25 = CONICAL_SURFACE ( 'NONE', #98, 0.9999999999999988898, 0.5235987755982927094 ) ;
#26 = CC_DESIGN_APPROVAL ( #194, ( #166 ) ) ;
#27 = CIRCLE ( 'NONE', #263, 0.8500000000000000888 ) ;
#28 = VERTEX_POINT ( 'NONE', #206 ) ;
#29 = APPLICATION_CONTEXT ( 'configuration controlled 3d designs of mechanical parts and assemblies' ) ;
#30 = DIRECTION ( 'NONE',  ( 3.491481338843133355E-15, -1.224646799147353207E-16, 1.000000000000000000 ) ) ;
#31 = AXIS2_PLACEMENT_3D ( 'NONE', #93, #280, #105 ) ;
#32 = CARTESIAN_POINT ( 'NONE',  ( 8.728703347107829444E-16, -3.061616997868381785E-17, 0.2499999999999998890 ) ) ;
#33 = CARTESIAN_POINT ( 'NONE',  ( 6.405924284287275164E-14, 0.8803844939755792742, 18.34729635533384595 ) ) ;
#34 = FACE_BOUND ( 'NONE', #199, .T. ) ;
#35 = DIRECTION ( 'NONE',  ( 3.851859888774476085E-31, 1.000000000000000000, 1.084202172485505667E-16 ) ) ;
#36 = EDGE_CURVE ( 'NONE', #141, #141, #65, .T. ) ;
#37 = EDGE_LOOP ( 'NONE', ( #118 ) ) ;
#38 = DIRECTION ( 'NONE',  ( -3.491481338843133355E-15, 1.224646799147353207E-16, -1.000000000000000000 ) ) ;
#39 = CALENDAR_DATE ( 2021, 1, 12 ) ;
#40 = CIRCLE ( 'NONE', #266, 1.000000000000000000 ) ;
#41 = APPROVAL_PERSON_ORGANIZATION ( #178, #296, #300 ) ;
#42 = EDGE_LOOP ( 'NONE', ( #16 ) ) ;
#43 = ORIENTED_EDGE ( 'NONE', *, *, #260, .F. ) ;
#44 = COORDINATED_UNIVERSAL_TIME_OFFSET ( 1, 0, .AHEAD. ) ;
#45 = CC_DESIGN_DATE_AND_TIME_ASSIGNMENT ( #88, #63, ( #181 ) ) ;
#46 = ORIENTED_EDGE ( 'NONE', *, *, #281, .T. ) ;
#47 = DIRECTION ( 'NONE',  ( -3.491481338843133355E-15, 1.224646799147353207E-16, -1.000000000000000000 ) ) ;
#48 = DIRECTION ( 'NONE',  ( -3.491481338843133355E-15, 1.224646799147353207E-16, -1.000000000000000000 ) ) ;
#49 = APPROVAL ( #177, 'UNSPECIFIED' ) ;
#50 = APPROVAL_PERSON_ORGANIZATION ( #198, #194, #20 ) ;
#51 = CYLINDRICAL_SURFACE ( 'NONE', #291, 0.8499999999999994227 ) ;
#52 = APPROVAL_PERSON_ORGANIZATION ( #254, #49, #115 ) ;
#53 = DIRECTION ( 'NONE',  ( 3.491481338843133355E-15, -1.224646799147353207E-16, 1.000000000000000000 ) ) ;
#54 = DIRECTION ( 'NONE',  ( 0.0000000000000000000, 1.000000000000000000, 0.0000000000000000000 ) ) ;
#55 = FACE_OUTER_BOUND ( 'NONE', #37, .T. ) ;
#56 = CARTESIAN_POINT ( 'NONE',  ( 2.883896417162832445E-14, -1.011534696479630343E-15, 8.259807621135337286 ) ) ;
#57 = TOROIDAL_SURFACE ( 'NONE', #128, 2.850000000000000089, 2.000000000000000000 ) ;
#58 = FACE_OUTER_BOUND ( 'NONE', #162, .T. ) ;
#59 = DIRECTION ( 'NONE',  ( 1.000000000000000000, 0.0000000000000000000, 0.0000000000000000000 ) ) ;
#60 = PLANE ( 'NONE',  #179 ) ;
#61 = COORDINATED_UNIVERSAL_TIME_OFFSET ( 1, 0, .AHEAD. ) ;
#62 = PERSON ( 'UNSPECIFIED', 'UNSPECIFIED', 'UNSPECIFIED', ('UNSPECIFIED'), ('UNSPECIFIED'), ('UNSPECIFIED') ) ;
#63 = DATE_TIME_ROLE ( 'creation_date' ) ;
#64 = APPROVAL_DATE_TIME ( #224, #49 ) ;
#65 = CIRCLE ( 'NONE', #288, 1.499999999999996669 ) ;
#66 = CALENDAR_DATE ( 2021, 1, 12 ) ;
#67 = AXIS2_PLACEMENT_3D ( 'NONE', #96, #215, #59 ) ;
#68 = CC_DESIGN_PERSON_AND_ORGANIZATION_ASSIGNMENT ( #160, #221, ( #166 ) ) ;
#69 = CARTESIAN_POINT ( 'NONE',  ( 7.632835768763412300E-14, 1.499999999999994005, 21.86131050980348078 ) ) ;
#70 = SECURITY_CLASSIFICATION ( '', '', #295 ) ;
#71 = CIRCLE ( 'NONE', #136, 0.8803844939755816057 ) ;
#72 = ADVANCED_FACE ( 'NONE', ( #135, #277 ), #302, .T. ) ;
#73 = FACE_OUTER_BOUND ( 'NONE', #114, .T. ) ;
#74 = FACE_OUTER_BOUND ( 'NONE', #205, .T. ) ;
#75 = ORIENTED_EDGE ( 'NONE', *, *, #281, .F. ) ;
#76 = DIRECTION ( 'NONE',  ( 0.0000000000000000000, -1.000000000000000000, 0.0000000000000000000 ) ) ;
#77 = CARTESIAN_POINT ( 'NONE',  ( 0.0000000000000000000, 0.0000000000000000000, 0.0000000000000000000 ) ) ;
#78 = FACE_OUTER_BOUND ( 'NONE', #139, .T. ) ;
#79 = CIRCLE ( 'NONE', #242, 1.500000000000001554 ) ;
#80 = MANIFOLD_SOLID_BREP ( 'Corps-Déplacer/Copier1[2]', #161 ) ;
#81 = CIRCLE ( 'NONE', #225, 0.9999999999999988898 ) ;
#82 = DIRECTION ( 'NONE',  ( 0.0000000000000000000, 1.000000000000000000, 0.0000000000000000000 ) ) ;
#83 = DIRECTION ( 'NONE',  ( -3.491481338843133355E-15, 1.224646799147353207E-16, -1.000000000000000000 ) ) ;
#84 = AXIS2_PLACEMENT_3D ( 'NONE', #109, #154, #108 ) ;
#85 = EDGE_LOOP ( 'NONE', ( #248 ) ) ;
#86 = PERSON_AND_ORGANIZATION_ROLE ( 'creator' ) ;
#87 = EDGE_LOOP ( 'NONE', ( #180 ) ) ;
#88 = DATE_AND_TIME ( #298, #210 ) ;
#89 = EDGE_CURVE ( 'NONE', #23, #23, #261, .T. ) ;
#90 = DATE_AND_TIME ( #66, #240 ) ;
#91 = EDGE_LOOP ( 'NONE', ( #223 ) ) ;
#92 = APPROVAL_DATE_TIME ( #293, #296 ) ;
#93 = CARTESIAN_POINT ( 'NONE',  ( 2.883896417162832445E-14, -1.011534696479630343E-15, 8.259807621135337286 ) ) ;
#94 = EDGE_LOOP ( 'NONE', ( #237 ) ) ;
#95 = LOCAL_TIME ( 15, 3, 41.00000000000000000, #61 ) ;
#96 = CARTESIAN_POINT ( 'NONE',  ( 0.0000000000000000000, 0.0000000000000000000, 0.0000000000000000000 ) ) ;
#97 = DIRECTION ( 'NONE',  ( 0.0000000000000000000, 1.000000000000000000, 0.0000000000000000000 ) ) ;
#98 = AXIS2_PLACEMENT_3D ( 'NONE', #32, #262, #133 ) ;
#99 = PERSON_AND_ORGANIZATION ( #62, #235 ) ;
#100 = VERTEX_POINT ( 'NONE', #185 ) ;
#101 = DIRECTION ( 'NONE',  ( -3.491481338843133355E-15, 1.224646799147353207E-16, -1.000000000000000000 ) ) ;
#102 = CARTESIAN_POINT ( 'NONE',  ( -1.829334168411222043E-31, 6.416440520509798859E-33, -5.239421296799349975E-17 ) ) ;
#103 = DIRECTION ( 'NONE',  ( 4.275831445896958607E-31, 1.000000000000000000, 1.224646799147352961E-16 ) ) ;
#104 = ADVANCED_FACE ( 'NONE', ( #287, #78 ), #126, .T. ) ;
#105 = DIRECTION ( 'NONE',  ( 0.0000000000000000000, 1.000000000000000000, 0.0000000000000000000 ) ) ;
#106 = DIRECTION ( 'NONE',  ( -3.491481338843133355E-15, 1.224646799147353207E-16, -1.000000000000000000 ) ) ;
#107 = CARTESIAN_POINT ( 'NONE',  ( 1.735266225405037467E-13, 1.499999999999995559, 49.70000000000000284 ) ) ;
#108 = DIRECTION ( 'NONE',  ( -4.275831445896958607E-31, -1.000000000000000000, -1.224646799147353207E-16 ) ) ;
#109 = CARTESIAN_POINT ( 'NONE',  ( 2.793185071074506684E-14, 7.498798913309271618E-33, 8.000000000000000000 ) ) ;
#110 =( LENGTH_UNIT ( ) NAMED_UNIT ( * ) SI_UNIT ( .MILLI., .METRE. ) );
#111 = DIRECTION ( 'NONE',  ( -3.491481338843133355E-15, 1.224646799147353207E-16, -1.000000000000000000 ) ) ;
#112 = CIRCLE ( 'NONE', #123, 1.200000000000001732 ) ;
#113 = AXIS2_PLACEMENT_3D ( 'NONE', #7, #169, #127 ) ;
#114 = EDGE_LOOP ( 'NONE', ( #299 ) ) ;
#115 = APPROVAL_ROLE ( '' ) ;
#116 = EDGE_LOOP ( 'NONE', ( #142 ) ) ;
#117 = CIRCLE ( 'NONE', #31, 0.8499999999999987566 ) ;
#118 = ORIENTED_EDGE ( 'NONE', *, *, #151, .F. ) ;
#119 = PERSON_AND_ORGANIZATION ( #62, #235 ) ;
#120 = CARTESIAN_POINT ( 'NONE',  ( 0.0000000000000000000, 0.0000000000000000000, 0.0000000000000000000 ) ) ;
#121 = PERSON_AND_ORGANIZATION ( #62, #235 ) ;
#122 = VERTEX_POINT ( 'NONE', #8 ) ;
#123 = AXIS2_PLACEMENT_3D ( 'NONE', #216, #111, #258 ) ;
#124 =( GEOMETRIC_REPRESENTATION_CONTEXT ( 3 ) GLOBAL_UNCERTAINTY_ASSIGNED_CONTEXT ( ( #269 ) ) GLOBAL_UNIT_ASSIGNED_CONTEXT ( ( #110, #275, #211 ) ) REPRESENTATION_CONTEXT ( 'NONE', 'WORKASPACE' ) );
#125 = ADVANCED_FACE ( 'NONE', ( #284 ), #171, .T. ) ;
#126 = CYLINDRICAL_SURFACE ( 'NONE', #272, 0.9999999999999995559 ) ;
#127 = DIRECTION ( 'NONE',  ( 4.275831445896958607E-31, 1.000000000000000000, 1.224646799147353207E-16 ) ) ;
#128 = AXIS2_PLACEMENT_3D ( 'NONE', #247, #106, #241 ) ;
#129 = ADVANCED_FACE ( 'NONE', ( #191, #34 ), #153, .T. ) ;
#130 = DIRECTION ( 'NONE',  ( 3.491481338843133355E-15, -1.224646799147353207E-16, 1.000000000000000000 ) ) ;
#131 = CARTESIAN_POINT ( 'NONE',  ( 1.745740669421566678E-13, -6.123233995736766085E-15, 50.00000000000000000 ) ) ;
#132 = ORIENTED_EDGE ( 'NONE', *, *, #260, .T. ) ;
#133 = DIRECTION ( 'NONE',  ( -3.851859888774476085E-31, -1.000000000000000000, -1.084202172485505667E-16 ) ) ;
#134 = COORDINATED_UNIVERSAL_TIME_OFFSET ( 1, 0, .AHEAD. ) ;
#135 = FACE_OUTER_BOUND ( 'NONE', #9, .T. ) ;
#136 = AXIS2_PLACEMENT_3D ( 'NONE', #208, #101, #54 ) ;
#137 = CALENDAR_DATE ( 2021, 1, 12 ) ;
#138 = PERSON_AND_ORGANIZATION ( #62, #235 ) ;
#139 = EDGE_LOOP ( 'NONE', ( #246 ) ) ;
#140 = APPLICATION_CONTEXT ( 'configuration controlled 3d designs of mechanical parts and assemblies' ) ;
#141 = VERTEX_POINT ( 'NONE', #69 ) ;
#142 = ORIENTED_EDGE ( 'NONE', *, *, #209, .F. ) ;
#143 = CARTESIAN_POINT ( 'NONE',  ( 1.735266225405037467E-13, -6.086494591762345225E-15, 49.70000000000000284 ) ) ;
#144 = CONICAL_SURFACE ( 'NONE', #195, 1.499999999999996669, 0.1745329251994258701 ) ;
#145 = ADVANCED_FACE ( 'NONE', ( #207 ), #6, .F. ) ;
#146 = CARTESIAN_POINT ( 'NONE',  ( 0.0000000000000000000, 0.0000000000000000000, 0.0000000000000000000 ) ) ;
#147 = AXIS2_PLACEMENT_3D ( 'NONE', #131, #244, #170 ) ;
#148 = CARTESIAN_POINT ( 'NONE',  ( 0.0000000000000000000, 0.8556624327025945664, 0.0000000000000000000 ) ) ;
#149 = DIRECTION ( 'NONE',  ( 4.275831445896958607E-31, 1.000000000000000000, 1.224646799147353207E-16 ) ) ;
#150 = CARTESIAN_POINT ( 'NONE',  ( 1.745740669421566678E-13, 8.998558695971067645E-33, 50.00000000000000000 ) ) ;
#151 = EDGE_CURVE ( 'NONE', #100, #100, #112, .T. ) ;
#152 = DIRECTION ( 'NONE',  ( -3.491481338843133355E-15, 1.224646799147353207E-16, -1.000000000000000000 ) ) ;
#153 = CONICAL_SURFACE ( 'NONE', #147, 1.200000000000001732, 0.7853981633974453924 ) ;
#154 = DIRECTION ( 'NONE',  ( 3.491481338843133355E-15, -1.224646799147353207E-16, 1.000000000000000000 ) ) ;
#155 = DIRECTION ( 'NONE',  ( -3.491481338843133355E-15, 1.224646799147353207E-16, -1.000000000000000000 ) ) ;
#156 = DIRECTION ( 'NONE',  ( 0.0000000000000000000, 1.000000000000000000, 0.0000000000000000000 ) ) ;
#157 = CC_DESIGN_PERSON_AND_ORGANIZATION_ASSIGNMENT ( #99, #227, ( #267 ) ) ;
#158 = CC_DESIGN_APPROVAL ( #49, ( #181 ) ) ;
#159 = AXIS2_PLACEMENT_3D ( 'NONE', #56, #152, #212 ) ;
#160 = PERSON_AND_ORGANIZATION ( #62, #235 ) ;
#161 = CLOSED_SHELL ( 'NONE', ( #230, #228, #104, #125 ) ) ;
#162 = EDGE_LOOP ( 'NONE', ( #168 ) ) ;
#163 = DIRECTION ( 'NONE',  ( 4.275831445896958607E-31, 1.000000000000000000, 1.224646799147353454E-16 ) ) ;
#164 = VERTEX_POINT ( 'NONE', #282 ) ;
#165 = CC_DESIGN_PERSON_AND_ORGANIZATION_ASSIGNMENT ( #119, #203, ( #181 ) ) ;
#166 = PRODUCT_DEFINITION_FORMATION_WITH_SPECIFIED_SOURCE ( 'ANY', '', #267, .NOT_KNOWN. ) ;
#167 = CARTESIAN_POINT ( 'NONE',  ( 7.632835768763412300E-14, -2.677238394099722734E-15, 21.86131050980348078 ) ) ;
#168 = ORIENTED_EDGE ( 'NONE', *, *, #270, .F. ) ;
#169 = DIRECTION ( 'NONE',  ( -3.491481338843133355E-15, 1.224646799147353207E-16, -1.000000000000000000 ) ) ;
#170 = DIRECTION ( 'NONE',  ( 0.0000000000000000000, 1.000000000000000000, 0.0000000000000000000 ) ) ;
#171 = PLANE ( 'NONE',  #249 ) ;
#172 = AXIS2_PLACEMENT_3D ( 'NONE', #102, #130, #214 ) ;
#173 = DIRECTION ( 'NONE',  ( -4.275831445896958607E-31, -1.000000000000000000, -1.224646799147353207E-16 ) ) ;
#174 = EDGE_CURVE ( 'NONE', #24, #24, #183, .T. ) ;
#175 = PRODUCT_DEFINITION_SHAPE ( 'NONE', 'NONE',  #181 ) ;
#176 = EDGE_LOOP ( 'NONE', ( #201 ) ) ;
#177 = APPROVAL_STATUS ( 'not_yet_approved' ) ;
#178 = PERSON_AND_ORGANIZATION ( #62, #235 ) ;
#179 = AXIS2_PLACEMENT_3D ( 'NONE', #150, #83, #149 ) ;
#180 = ORIENTED_EDGE ( 'NONE', *, *, #89, .T. ) ;
#181 = PRODUCT_DEFINITION ( 'UNKNOWN', '', #166, #18 ) ;
#182 = CARTESIAN_POINT ( 'NONE',  ( 2.793185071074506684E-14, 0.9999999999999988898, 8.000000000000000000 ) ) ;
#183 = CIRCLE ( 'NONE', #10, 1.000000000000000000 ) ;
#184 = ADVANCED_FACE ( 'NONE', ( #55 ), #60, .F. ) ;
#185 = CARTESIAN_POINT ( 'NONE',  ( 1.745740669421566678E-13, 1.199999999999995515, 50.00000000000000000 ) ) ;
#186 = FACE_BOUND ( 'NONE', #218, .T. ) ;
#187 = PLANE ( 'NONE',  #172 ) ;
#188 = CARTESIAN_POINT ( 'NONE',  ( 6.284666409917640040E-14, 0.8499999999999978684, 18.00000000000000000 ) ) ;
#189 = DIRECTION ( 'NONE',  ( -3.491481338843133355E-15, 1.224646799147353207E-16, -1.000000000000000000 ) ) ;
#190 = FACE_BOUND ( 'NONE', #176, .T. ) ;
#191 = FACE_OUTER_BOUND ( 'NONE', #232, .T. ) ;
#192 = CC_DESIGN_PERSON_AND_ORGANIZATION_ASSIGNMENT ( #121, #86, ( #166 ) ) ;
#193 = APPROVAL_STATUS ( 'not_yet_approved' ) ;
#194 = APPROVAL ( #271, 'UNSPECIFIED' ) ;
#195 = AXIS2_PLACEMENT_3D ( 'NONE', #167, #53, #76 ) ;
#196 = PERSON_AND_ORGANIZATION_ROLE ( 'classification_officer' ) ;
#197 = ORIENTED_EDGE ( 'NONE', *, *, #36, .F. ) ;
#198 = PERSON_AND_ORGANIZATION ( #62, #235 ) ;
#199 = EDGE_LOOP ( 'NONE', ( #301 ) ) ;
#200 = APPROVAL_DATE_TIME ( #90, #194 ) ;
#201 = ORIENTED_EDGE ( 'NONE', *, *, #89, .F. ) ;
#202 = ADVANCED_FACE ( 'NONE', ( #58, #3 ), #57, .F. ) ;
#203 = PERSON_AND_ORGANIZATION_ROLE ( 'creator' ) ;
#204 = DIRECTION ( 'NONE',  ( 0.0000000000000000000, 1.000000000000000000, 0.0000000000000000000 ) ) ;
#205 = EDGE_LOOP ( 'NONE', ( #229 ) ) ;
#206 = CARTESIAN_POINT ( 'NONE',  ( 2.883896417162832445E-14, 0.8499999999999977573, 8.259807621135337286 ) ) ;
#207 = FACE_OUTER_BOUND ( 'NONE', #278, .T. ) ;
#208 = CARTESIAN_POINT ( 'NONE',  ( 6.405924284287275164E-14, -2.246895775456749140E-15, 18.34729635533384595 ) ) ;
#209 = EDGE_CURVE ( 'NONE', #164, #164, #81, .T. ) ;
#210 = LOCAL_TIME ( 15, 3, 41.00000000000000000, #44 ) ;
#211 =( NAMED_UNIT ( * ) SI_UNIT ( $, .STERADIAN. ) SOLID_ANGLE_UNIT ( ) );
#212 = DIRECTION ( 'NONE',  ( 0.0000000000000000000, 1.000000000000000000, 0.0000000000000000000 ) ) ;
#213 = ADVANCED_BREP_SHAPE_REPRESENTATION ( '200785', ( #279, #80, #67 ), #124 ) ;
#214 = DIRECTION ( 'NONE',  ( -4.275831445896958607E-31, -1.000000000000000000, -1.224646799147353207E-16 ) ) ;
#215 = DIRECTION ( 'NONE',  ( 0.0000000000000000000, 0.0000000000000000000, 1.000000000000000000 ) ) ;
#216 = CARTESIAN_POINT ( 'NONE',  ( 1.745740669421566678E-13, -6.123233995736766085E-15, 50.00000000000000000 ) ) ;
#217 = PRODUCT_RELATED_PRODUCT_CATEGORY ( 'detail', '', ( #267 ) ) ;
#218 = EDGE_LOOP ( 'NONE', ( #75 ) ) ;
#219 = CARTESIAN_POINT ( 'NONE',  ( 2.793185071074506684E-14, 7.498798913309271618E-33, 8.000000000000000000 ) ) ;
#220 = VERTEX_POINT ( 'NONE', #188 ) ;
#221 = PERSON_AND_ORGANIZATION_ROLE ( 'design_supplier' ) ;
#222 = ORIENTED_EDGE ( 'NONE', *, *, #22, .F. ) ;
#223 = ORIENTED_EDGE ( 'NONE', *, *, #209, .T. ) ;
#224 = DATE_AND_TIME ( #39, #95 ) ;
#225 = AXIS2_PLACEMENT_3D ( 'NONE', #239, #155, #35 ) ;
#226 = MECHANICAL_CONTEXT ( 'NONE', #140, 'mechanical' ) ;
#227 = PERSON_AND_ORGANIZATION_ROLE ( 'design_owner' ) ;
#228 = ADVANCED_FACE ( 'NONE', ( #190, #283 ), #25, .T. ) ;
#229 = ORIENTED_EDGE ( 'NONE', *, *, #36, .T. ) ;
#230 = ADVANCED_FACE ( 'NONE', ( #286 ), #187, .F. ) ;
#231 = APPLICATION_PROTOCOL_DEFINITION ( 'international standard', 'config_control_design', 1994, #140 ) ;
#232 = EDGE_LOOP ( 'NONE', ( #222 ) ) ;
#233 = DIRECTION ( 'NONE',  ( -3.491481338843133355E-15, 1.224646799147353207E-16, -1.000000000000000000 ) ) ;
#234 = FACE_OUTER_BOUND ( 'NONE', #94, .T. ) ;
#235 = ORGANIZATION ( 'UNSPECIFIED', 'UNSPECIFIED', '' ) ;
#236 = DIRECTION ( 'NONE',  ( -3.491481338843133355E-15, 1.224646799147353207E-16, -1.000000000000000000 ) ) ;
#237 = ORIENTED_EDGE ( 'NONE', *, *, #22, .T. ) ;
#238 = ADVANCED_FACE ( 'NONE', ( #186, #74 ), #144, .T. ) ;
#239 = CARTESIAN_POINT ( 'NONE',  ( 8.728703347107829444E-16, -3.061616997868381785E-17, 0.2499999999999998890 ) ) ;
#240 = LOCAL_TIME ( 15, 3, 41.00000000000000000, #134 ) ;
#241 = DIRECTION ( 'NONE',  ( 4.275831445896958607E-31, 1.000000000000000000, 1.224646799147353207E-16 ) ) ;
#242 = AXIS2_PLACEMENT_3D ( 'NONE', #143, #233, #82 ) ;
#243 = ADVANCED_FACE ( 'NONE', ( #17, #234 ), #19, .T. ) ;
#244 = DIRECTION ( 'NONE',  ( -3.491481338843133355E-15, 1.224646799147353207E-16, -1.000000000000000000 ) ) ;
#245 = APPLICATION_PROTOCOL_DEFINITION ( 'international standard', 'config_control_design', 1994, #29 ) ;
#246 = ORIENTED_EDGE ( 'NONE', *, *, #174, .T. ) ;
#247 = CARTESIAN_POINT ( 'NONE',  ( 6.284666409917640040E-14, -2.168404344971008868E-15, 18.00000000000000000 ) ) ;
#248 = ORIENTED_EDGE ( 'NONE', *, *, #270, .T. ) ;
#249 = AXIS2_PLACEMENT_3D ( 'NONE', #219, #30, #173 ) ;
#250 = CC_DESIGN_APPROVAL ( #296, ( #70 ) ) ;
#251 = AXIS2_PLACEMENT_3D ( 'NONE', #120, #259, #163 ) ;
#252 = COORDINATED_UNIVERSAL_TIME_OFFSET ( 1, 0, .AHEAD. ) ;
#253 = CC_DESIGN_SECURITY_CLASSIFICATION ( #70, ( #166 ) ) ;
#254 = PERSON_AND_ORGANIZATION ( #62, #235 ) ;
#255 = FACE_OUTER_BOUND ( 'NONE', #85, .T. ) ;
#256 = CARTESIAN_POINT ( 'NONE',  ( 2.793185071074506684E-14, -9.797174393178825657E-16, 8.000000000000000000 ) ) ;
#257 = CC_DESIGN_DATE_AND_TIME_ASSIGNMENT ( #268, #15, ( #70 ) ) ;
#258 = DIRECTION ( 'NONE',  ( 0.0000000000000000000, 1.000000000000000000, 0.0000000000000000000 ) ) ;
#259 = DIRECTION ( 'NONE',  ( -3.491481338843133355E-15, 1.224646799147353207E-16, -1.000000000000000000 ) ) ;
#260 = EDGE_CURVE ( 'NONE', #122, #122, #40, .T. ) ;
#261 = CIRCLE ( 'NONE', #113, 0.8556624327025945664 ) ;
#262 = DIRECTION ( 'NONE',  ( 3.491481338843133355E-15, -1.224646799147353207E-16, 1.000000000000000000 ) ) ;
#263 = AXIS2_PLACEMENT_3D ( 'NONE', #303, #48, #97 ) ;
#264 = EDGE_LOOP ( 'NONE', ( #197 ) ) ;
#265 = DIRECTION ( 'NONE',  ( 0.0000000000000000000, 1.000000000000000000, 0.0000000000000000000 ) ) ;
#266 = AXIS2_PLACEMENT_3D ( 'NONE', #1, #47, #204 ) ;
#267 = PRODUCT ( '200785', '200785', '', ( #226 ) ) ;
#268 = DATE_AND_TIME ( #137, #289 ) ;
#269 = UNCERTAINTY_MEASURE_WITH_UNIT (LENGTH_MEASURE( 1.000000000000000082E-05 ), #110, 'distance_accuracy_value', 'NONE');
#270 = EDGE_CURVE ( 'NONE', #220, #220, #27, .T. ) ;
#271 = APPROVAL_STATUS ( 'not_yet_approved' ) ;
#272 = AXIS2_PLACEMENT_3D ( 'NONE', #77, #290, #5 ) ;
#273 = LOCAL_TIME ( 15, 3, 41.00000000000000000, #12 ) ;
#274 = SHAPE_DEFINITION_REPRESENTATION ( #175, #213 ) ;
#275 =( NAMED_UNIT ( * ) PLANE_ANGLE_UNIT ( ) SI_UNIT ( $, .RADIAN. ) );
#276 = EDGE_LOOP ( 'NONE', ( #46 ) ) ;
#277 = FACE_BOUND ( 'NONE', #42, .T. ) ;
#278 = EDGE_LOOP ( 'NONE', ( #132 ) ) ;
#279 = MANIFOLD_SOLID_BREP ( 'Corps-Déplacer/Copier1[1]', #14 ) ;
#280 = DIRECTION ( 'NONE',  ( -3.491481338843133355E-15, 1.224646799147353207E-16, -1.000000000000000000 ) ) ;
#281 = EDGE_CURVE ( 'NONE', #285, #285, #71, .T. ) ;
#282 = CARTESIAN_POINT ( 'NONE',  ( 8.728703347107833388E-16, 0.9999999999999988898, 0.2500000000000000000 ) ) ;
#283 = FACE_OUTER_BOUND ( 'NONE', #91, .T. ) ;
#284 = FACE_OUTER_BOUND ( 'NONE', #294, .T. ) ;
#285 = VERTEX_POINT ( 'NONE', #33 ) ;
#286 = FACE_OUTER_BOUND ( 'NONE', #87, .T. ) ;
#287 = FACE_OUTER_BOUND ( 'NONE', #116, .T. ) ;
#288 = AXIS2_PLACEMENT_3D ( 'NONE', #11, #38, #156 ) ;
#289 = LOCAL_TIME ( 15, 3, 41.00000000000000000, #252 ) ;
#290 = DIRECTION ( 'NONE',  ( -3.491481338843133355E-15, 1.224646799147353207E-16, -1.000000000000000000 ) ) ;
#291 = AXIS2_PLACEMENT_3D ( 'NONE', #146, #236, #103 ) ;
#292 = ADVANCED_FACE ( 'NONE', ( #73, #255 ), #51, .T. ) ;
#293 = DATE_AND_TIME ( #297, #273 ) ;
#294 = EDGE_LOOP ( 'NONE', ( #21 ) ) ;
#295 = SECURITY_CLASSIFICATION_LEVEL ( 'unclassified' ) ;
#296 = APPROVAL ( #193, 'UNSPECIFIED' ) ;
#297 = CALENDAR_DATE ( 2021, 1, 12 ) ;
#298 = CALENDAR_DATE ( 2021, 1, 12 ) ;
#299 = ORIENTED_EDGE ( 'NONE', *, *, #13, .F. ) ;
#300 = APPROVAL_ROLE ( '' ) ;
#301 = ORIENTED_EDGE ( 'NONE', *, *, #151, .T. ) ;
#302 = CONICAL_SURFACE ( 'NONE', #159, 0.8499999999999987566, 0.5235987755982940417 ) ;
#303 = CARTESIAN_POINT ( 'NONE',  ( 6.284666409917640040E-14, -2.204364238465235428E-15, 18.00000000000000000 ) ) ;
ENDSEC;
END-ISO-10303-21;
