ISO-10303-21;
HEADER;
FILE_DESCRIPTION (( 'STEP AP203' ),
    '1' );
FILE_NAME ('200784.step',
    '2021-12-01T10:40:10',
    ( '' ),
    ( '' ),
    'SwSTEP 2.0',
    'SolidWorks 2019',
    '' );
FILE_SCHEMA (( 'CONFIG_CONTROL_DESIGN' ));
ENDSEC;

DATA;
#1 = CONICAL_SURFACE ( 'NONE', #99, 1.499999999999997780, 0.1745329251994261199 ) ;
#2 = APPROVAL_PERSON_ORGANIZATION ( #267, #196, #106 ) ;
#3 = DESIGN_CONTEXT ( 'detailed design', #292, 'design' ) ;
#4 = CARTESIAN_POINT ( 'NONE',  ( 2.504511167915743751E-14, -8.784642641776459355E-16, 7.173205080756892116 ) ) ;
#5 = FACE_OUTER_BOUND ( 'NONE', #104, .T. ) ;
#6 = VERTEX_POINT ( 'NONE', #93 ) ;
#7 = CARTESIAN_POINT ( 'NONE',  ( 8.728703347107835360E-16, 0.7499999999999991118, 0.2500000000000000555 ) ) ;
#8 = CC_DESIGN_DATE_AND_TIME_ASSIGNMENT ( #37, #151, ( #258 ) ) ;
#9 = VERTEX_POINT ( 'NONE', #164 ) ;
#10 = APPROVAL ( #243, 'UNSPECIFIED' ) ;
#11 = PERSON_AND_ORGANIZATION ( #199, #52 ) ;
#12 = TOROIDAL_SURFACE ( 'NONE', #30, 2.649999999999999911, 2.000000000000000444 ) ;
#13 = APPLICATION_PROTOCOL_DEFINITION ( 'international standard', 'config_control_design', 1994, #193 ) ;
#14 = ORIENTED_EDGE ( 'NONE', *, *, #287, .T. ) ;
#15 = DIRECTION ( 'NONE',  ( 0.0000000000000000000, 0.0000000000000000000, 1.000000000000000000 ) ) ;
#16 = EDGE_LOOP ( 'NONE', ( #218 ) ) ;
#17 = CALENDAR_DATE ( 2021, 1, 12 ) ;
#18 = ORIENTED_EDGE ( 'NONE', *, *, #188, .F. ) ;
#19 = CONICAL_SURFACE ( 'NONE', #266, 1.200000000000003286, 0.7853981633974453924 ) ;
#20 = DATE_AND_TIME ( #221, #80 ) ;
#21 = EDGE_LOOP ( 'NONE', ( #242 ) ) ;
#22 = ORIENTED_EDGE ( 'NONE', *, *, #287, .F. ) ;
#23 = CC_DESIGN_PERSON_AND_ORGANIZATION_ASSIGNMENT ( #263, #271, ( #258 ) ) ;
#24 = CLOSED_SHELL ( 'NONE', ( #298, #183, #88, #278, #224, #114, #247, #28 ) ) ;
#25 = CARTESIAN_POINT ( 'NONE',  ( 2.504511167915743751E-14, -8.784642641776459355E-16, 7.173205080756892116 ) ) ;
#26 = CARTESIAN_POINT ( 'NONE',  ( 5.237222008264700033E-14, -1.836970198721029589E-15, 15.00000000000000000 ) ) ;
#27 = DIRECTION ( 'NONE',  ( -4.275831445896958607E-31, -1.000000000000000000, -1.224646799147353207E-16 ) ) ;
#28 = ADVANCED_FACE ( 'NONE', ( #229 ), #67, .F. ) ;
#29 = DIRECTION ( 'NONE',  ( -3.491481338843133355E-15, 1.224646799147353207E-16, -1.000000000000000000 ) ) ;
#30 = AXIS2_PLACEMENT_3D ( 'NONE', #181, #209, #69 ) ;
#31 = PRODUCT_DEFINITION_FORMATION_WITH_SPECIFIED_SOURCE ( 'ANY', '', #203, .NOT_KNOWN. ) ;
#32 = FACE_OUTER_BOUND ( 'NONE', #170, .T. ) ;
#33 = DIRECTION ( 'NONE',  ( 3.491481338843133355E-15, -1.224646799147353207E-16, 1.000000000000000000 ) ) ;
#34 = DIRECTION ( 'NONE',  ( 0.0000000000000000000, 1.000000000000000000, 0.0000000000000000000 ) ) ;
#35 = DIRECTION ( 'NONE',  ( 0.0000000000000000000, 1.000000000000000000, 0.0000000000000000000 ) ) ;
#36 = EDGE_LOOP ( 'NONE', ( #198 ) ) ;
#37 = DATE_AND_TIME ( #100, #275 ) ;
#38 = EDGE_LOOP ( 'NONE', ( #245 ) ) ;
#39 = APPROVAL_ROLE ( '' ) ;
#40 = PERSON_AND_ORGANIZATION ( #199, #52 ) ;
#41 = EDGE_CURVE ( 'NONE', #144, #144, #94, .T. ) ;
#42 = CARTESIAN_POINT ( 'NONE',  ( 2.444036937190193349E-14, -8.572527594031473190E-16, 7.000000000000000000 ) ) ;
#43 = FACE_BOUND ( 'NONE', #101, .T. ) ;
#44 = AXIS2_PLACEMENT_3D ( 'NONE', #64, #252, #27 ) ;
#45 = CYLINDRICAL_SURFACE ( 'NONE', #112, 1.500000000000000444 ) ;
#46 = DIRECTION ( 'NONE',  ( -3.491481338843133355E-15, 1.224646799147353207E-16, -1.000000000000000000 ) ) ;
#47 = DIRECTION ( 'NONE',  ( -3.491481338843133355E-15, 1.224646799147353207E-16, -1.000000000000000000 ) ) ;
#48 = EDGE_CURVE ( 'NONE', #282, #282, #129, .T. ) ;
#49 = DIRECTION ( 'NONE',  ( -3.491481338843133355E-15, 1.224646799147353207E-16, -1.000000000000000000 ) ) ;
#50 = DIRECTION ( 'NONE',  ( 4.275831445896957731E-31, 1.000000000000000000, 1.224646799147353207E-16 ) ) ;
#51 = CARTESIAN_POINT ( 'NONE',  ( 8.728703347107831416E-16, -3.061616997868382402E-17, 0.2499999999999999445 ) ) ;
#52 = ORGANIZATION ( 'UNSPECIFIED', 'UNSPECIFIED', '' ) ;
#53 = CARTESIAN_POINT ( 'NONE',  ( 1.326762908760390423E-13, 1.199999999999998845, 38.00000000000000000 ) ) ;
#54 = EDGE_LOOP ( 'NONE', ( #146 ) ) ;
#55 = PERSON_AND_ORGANIZATION_ROLE ( 'classification_officer' ) ;
#56 = ORIENTED_EDGE ( 'NONE', *, *, #295, .F. ) ;
#57 = LOCAL_TIME ( 11, 40, 10.00000000000000000, #294 ) ;
#58 = APPROVAL_STATUS ( 'not_yet_approved' ) ;
#59 = ORIENTED_EDGE ( 'NONE', *, *, #250, .F. ) ;
#60 = ORIENTED_EDGE ( 'NONE', *, *, #128, .F. ) ;
#61 = AXIS2_PLACEMENT_3D ( 'NONE', #163, #283, #35 ) ;
#62 = DIRECTION ( 'NONE',  ( -3.491481338843133355E-15, 1.224646799147353207E-16, -1.000000000000000000 ) ) ;
#63 = DIRECTION ( 'NONE',  ( 4.275831445896958607E-31, 1.000000000000000000, 1.224646799147353454E-16 ) ) ;
#64 = CARTESIAN_POINT ( 'NONE',  ( -1.294855237674102436E-31, 4.541740792182477534E-33, -3.708612797865159391E-17 ) ) ;
#65 =( GEOMETRIC_REPRESENTATION_CONTEXT ( 3 ) GLOBAL_UNCERTAINTY_ASSIGNED_CONTEXT ( ( #132 ) ) GLOBAL_UNIT_ASSIGNED_CONTEXT ( ( #138, #95, #241 ) ) REPRESENTATION_CONTEXT ( 'NONE', 'WORKASPACE' ) );
#66 = FACE_OUTER_BOUND ( 'NONE', #124, .T. ) ;
#67 = PLANE ( 'NONE',  #246 ) ;
#68 = VERTEX_POINT ( 'NONE', #70 ) ;
#69 = DIRECTION ( 'NONE',  ( 4.275831445896958607E-31, 1.000000000000000000, 1.224646799147353207E-16 ) ) ;
#70 = CARTESIAN_POINT ( 'NONE',  ( 6.981414859920803307E-14, 1.499999999999995559, 19.99556687372707842 ) ) ;
#71 = FACE_BOUND ( 'NONE', #16, .T. ) ;
#72 = CARTESIAN_POINT ( 'NONE',  ( 2.504511167915743751E-14, 0.6499999999999982458, 7.173205080756892116 ) ) ;
#73 = MANIFOLD_SOLID_BREP ( 'Corps-Déplacer/Copier1[2]', #165 ) ;
#74 = MANIFOLD_SOLID_BREP ( 'Corps-Déplacer/Copier1[1]', #24 ) ;
#75 = PERSON_AND_ORGANIZATION ( #199, #52 ) ;
#76 = EDGE_LOOP ( 'NONE', ( #264 ) ) ;
#77 = DATE_AND_TIME ( #103, #154 ) ;
#78 = ORIENTED_EDGE ( 'NONE', *, *, #250, .T. ) ;
#79 = CONICAL_SURFACE ( 'NONE', #231, 0.6499999999999991340, 0.5235987755982929315 ) ;
#80 = LOCAL_TIME ( 11, 40, 10.00000000000000000, #127 ) ;
#81 = MECHANICAL_CONTEXT ( 'NONE', #193, 'mechanical' ) ;
#82 = EDGE_LOOP ( 'NONE', ( #22 ) ) ;
#83 = APPLICATION_PROTOCOL_DEFINITION ( 'international standard', 'config_control_design', 1994, #292 ) ;
#84 = DIRECTION ( 'NONE',  ( -4.275831445896958607E-31, -1.000000000000000000, -1.224646799147353207E-16 ) ) ;
#85 = AXIS2_PLACEMENT_3D ( 'NONE', #189, #161, #208 ) ;
#86 = DIRECTION ( 'NONE',  ( 0.0000000000000000000, 1.000000000000000000, 0.0000000000000000000 ) ) ;
#87 = CARTESIAN_POINT ( 'NONE',  ( 0.0000000000000000000, 0.0000000000000000000, 0.0000000000000000000 ) ) ;
#88 = ADVANCED_FACE ( 'NONE', ( #66, #201 ), #107, .T. ) ;
#89 = DIRECTION ( 'NONE',  ( 4.275831445896958607E-31, 1.000000000000000000, 1.224646799147353207E-16 ) ) ;
#90 = FACE_OUTER_BOUND ( 'NONE', #159, .T. ) ;
#91 = CC_DESIGN_SECURITY_CLASSIFICATION ( #166, ( #31 ) ) ;
#92 = CARTESIAN_POINT ( 'NONE',  ( 1.326762908760390423E-13, -4.653657836759941941E-15, 38.00000000000000000 ) ) ;
#93 = CARTESIAN_POINT ( 'NONE',  ( 5.358479882634336420E-14, 0.6803844939755787635, 15.34729635533384773 ) ) ;
#94 = CIRCLE ( 'NONE', #105, 0.7500000000000000000 ) ;
#95 =( NAMED_UNIT ( * ) PLANE_ANGLE_UNIT ( ) SI_UNIT ( $, .RADIAN. ) );
#96 = VERTEX_POINT ( 'NONE', #7 ) ;
#97 = ADVANCED_FACE ( 'NONE', ( #111 ), #281, .T. ) ;
#98 = SHAPE_DEFINITION_REPRESENTATION ( #251, #288 ) ;
#99 = AXIS2_PLACEMENT_3D ( 'NONE', #177, #277, #135 ) ;
#100 = CALENDAR_DATE ( 2021, 1, 12 ) ;
#101 = EDGE_LOOP ( 'NONE', ( #174 ) ) ;
#102 = PERSON_AND_ORGANIZATION ( #199, #52 ) ;
#103 = CALENDAR_DATE ( 2021, 1, 12 ) ;
#104 = EDGE_LOOP ( 'NONE', ( #78 ) ) ;
#105 = AXIS2_PLACEMENT_3D ( 'NONE', #42, #157, #137 ) ;
#106 = APPROVAL_ROLE ( '' ) ;
#107 = CYLINDRICAL_SURFACE ( 'NONE', #202, 0.6499999999999995781 ) ;
#108 = AXIS2_PLACEMENT_3D ( 'NONE', #113, #207, #276 ) ;
#109 = CARTESIAN_POINT ( 'NONE',  ( 1.316288464743861212E-13, -4.616918432785521081E-15, 37.69999999999999574 ) ) ;
#110 = EDGE_LOOP ( 'NONE', ( #156 ) ) ;
#111 = FACE_OUTER_BOUND ( 'NONE', #21, .T. ) ;
#112 = AXIS2_PLACEMENT_3D ( 'NONE', #279, #62, #230 ) ;
#113 = CARTESIAN_POINT ( 'NONE',  ( 6.981414859920803307E-14, -2.448750696904671598E-15, 19.99556687372707842 ) ) ;
#114 = ADVANCED_FACE ( 'NONE', ( #223, #176 ), #45, .T. ) ;
#115 = FACE_BOUND ( 'NONE', #82, .T. ) ;
#116 = CARTESIAN_POINT ( 'NONE',  ( 1.316288464743861212E-13, 1.499999999999998668, 37.69999999999999574 ) ) ;
#117 = DIRECTION ( 'NONE',  ( 0.0000000000000000000, 1.000000000000000000, 0.0000000000000000000 ) ) ;
#118 = CONICAL_SURFACE ( 'NONE', #293, 0.7499999999999991118, 0.5235987755982927094 ) ;
#119 = VERTEX_POINT ( 'NONE', #120 ) ;
#120 = CARTESIAN_POINT ( 'NONE',  ( 2.444036937190193349E-14, 0.7499999999999991118, 7.000000000000000000 ) ) ;
#121 = ADVANCED_FACE ( 'NONE', ( #301, #180 ), #206, .T. ) ;
#122 = AXIS2_PLACEMENT_3D ( 'NONE', #212, #235, #50 ) ;
#123 = PERSON_AND_ORGANIZATION ( #199, #52 ) ;
#124 = EDGE_LOOP ( 'NONE', ( #272 ) ) ;
#125 = APPROVAL_DATE_TIME ( #149, #196 ) ;
#126 = EDGE_LOOP ( 'NONE', ( #18 ) ) ;
#127 = COORDINATED_UNIVERSAL_TIME_OFFSET ( 1, 0, .AHEAD. ) ;
#128 = EDGE_CURVE ( 'NONE', #119, #119, #147, .T. ) ;
#129 = CIRCLE ( 'NONE', #280, 1.500000000000003331 ) ;
#130 = CC_DESIGN_PERSON_AND_ORGANIZATION_ASSIGNMENT ( #290, #219, ( #31 ) ) ;
#131 = DIRECTION ( 'NONE',  ( 3.491481338843133355E-15, -1.224646799147353207E-16, 1.000000000000000000 ) ) ;
#132 = UNCERTAINTY_MEASURE_WITH_UNIT (LENGTH_MEASURE( 1.000000000000000082E-05 ), #138, 'distance_accuracy_value', 'NONE');
#133 = ORIENTED_EDGE ( 'NONE', *, *, #228, .F. ) ;
#134 = CIRCLE ( 'NONE', #171, 0.7499999999999991118 ) ;
#135 = DIRECTION ( 'NONE',  ( 0.0000000000000000000, -1.000000000000000000, 0.0000000000000000000 ) ) ;
#136 = DIRECTION ( 'NONE',  ( -3.491481338843133355E-15, 1.224646799147353207E-16, -1.000000000000000000 ) ) ;
#137 = DIRECTION ( 'NONE',  ( 0.0000000000000000000, 1.000000000000000000, 0.0000000000000000000 ) ) ;
#138 =( LENGTH_UNIT ( ) NAMED_UNIT ( * ) SI_UNIT ( .MILLI., .METRE. ) );
#139 = FACE_OUTER_BOUND ( 'NONE', #296, .T. ) ;
#140 = CARTESIAN_POINT ( 'NONE',  ( 2.444036937190193349E-14, 0.7499999999999991118, 7.000000000000000000 ) ) ;
#141 = DIRECTION ( 'NONE',  ( 5.135813185032634780E-31, 1.000000000000000000, 1.445602896647340889E-16 ) ) ;
#142 = CIRCLE ( 'NONE', #85, 0.6803844939755806509 ) ;
#143 = CC_DESIGN_APPROVAL ( #186, ( #258 ) ) ;
#144 = VERTEX_POINT ( 'NONE', #140 ) ;
#145 = DATE_AND_TIME ( #17, #248 ) ;
#146 = ORIENTED_EDGE ( 'NONE', *, *, #228, .T. ) ;
#147 = CIRCLE ( 'NONE', #195, 0.7500000000000000000 ) ;
#148 = ADVANCED_FACE ( 'NONE', ( #303 ), #256, .F. ) ;
#149 = DATE_AND_TIME ( #172, #57 ) ;
#150 = COORDINATED_UNIVERSAL_TIME_OFFSET ( 1, 0, .AHEAD. ) ;
#151 = DATE_TIME_ROLE ( 'creation_date' ) ;
#152 = EDGE_LOOP ( 'NONE', ( #222 ) ) ;
#153 = CIRCLE ( 'NONE', #273, 0.6499999999999991340 ) ;
#154 = LOCAL_TIME ( 11, 40, 10.00000000000000000, #150 ) ;
#155 = FACE_OUTER_BOUND ( 'NONE', #38, .T. ) ;
#156 = ORIENTED_EDGE ( 'NONE', *, *, #48, .F. ) ;
#157 = DIRECTION ( 'NONE',  ( -3.491481338843133355E-15, 1.224646799147353207E-16, -1.000000000000000000 ) ) ;
#158 = DIRECTION ( 'NONE',  ( 0.0000000000000000000, 1.000000000000000000, 0.0000000000000000000 ) ) ;
#159 = EDGE_LOOP ( 'NONE', ( #60 ) ) ;
#160 = CARTESIAN_POINT ( 'NONE',  ( 0.0000000000000000000, 0.6056624327025947885, 0.0000000000000000000 ) ) ;
#161 = DIRECTION ( 'NONE',  ( -3.491481338843133355E-15, 1.224646799147353207E-16, -1.000000000000000000 ) ) ;
#162 = PRODUCT_RELATED_PRODUCT_CATEGORY ( 'detail', '', ( #203 ) ) ;
#163 = CARTESIAN_POINT ( 'NONE',  ( 1.326762908760390423E-13, -4.653657836759941941E-15, 38.00000000000000000 ) ) ;
#164 = CARTESIAN_POINT ( 'NONE',  ( 5.237222008264700033E-14, 0.6499999999999982458, 15.00000000000000000 ) ) ;
#165 = CLOSED_SHELL ( 'NONE', ( #148, #302, #121, #97 ) ) ;
#166 = SECURITY_CLASSIFICATION ( '', '', #244 ) ;
#167 = EDGE_LOOP ( 'NONE', ( #56 ) ) ;
#168 = PERSON_AND_ORGANIZATION_ROLE ( 'design_supplier' ) ;
#169 = APPROVAL_DATE_TIME ( #77, #186 ) ;
#170 = EDGE_LOOP ( 'NONE', ( #133 ) ) ;
#171 = AXIS2_PLACEMENT_3D ( 'NONE', #51, #49, #141 ) ;
#172 = CALENDAR_DATE ( 2021, 1, 12 ) ;
#173 = COORDINATED_UNIVERSAL_TIME_OFFSET ( 1, 0, .AHEAD. ) ;
#174 = ORIENTED_EDGE ( 'NONE', *, *, #253, .T. ) ;
#175 = AXIS2_PLACEMENT_3D ( 'NONE', #194, #15, #197 ) ;
#176 = FACE_OUTER_BOUND ( 'NONE', #36, .T. ) ;
#177 = CARTESIAN_POINT ( 'NONE',  ( 6.981414859920803307E-14, -2.448750696904671598E-15, 19.99556687372707842 ) ) ;
#178 = DIRECTION ( 'NONE',  ( 0.0000000000000000000, 1.000000000000000000, 0.0000000000000000000 ) ) ;
#179 = CIRCLE ( 'NONE', #122, 0.6056624327025947885 ) ;
#180 = FACE_OUTER_BOUND ( 'NONE', #76, .T. ) ;
#181 = CARTESIAN_POINT ( 'NONE',  ( 5.237222008264700033E-14, -1.734723475976807094E-15, 15.00000000000000000 ) ) ;
#182 = PLANE ( 'NONE',  #211 ) ;
#183 = ADVANCED_FACE ( 'NONE', ( #90, #43 ), #79, .T. ) ;
#184 = AXIS2_PLACEMENT_3D ( 'NONE', #227, #131, #84 ) ;
#185 = DIRECTION ( 'NONE',  ( 3.491481338843133355E-15, -1.224646799147353207E-16, 1.000000000000000000 ) ) ;
#186 = APPROVAL ( #217, 'UNSPECIFIED' ) ;
#187 = FACE_OUTER_BOUND ( 'NONE', #110, .T. ) ;
#188 = EDGE_CURVE ( 'NONE', #68, #68, #190, .T. ) ;
#189 = CARTESIAN_POINT ( 'NONE',  ( 5.358479882634336420E-14, -1.879501735712543696E-15, 15.34729635533384773 ) ) ;
#190 = CIRCLE ( 'NONE', #108, 1.499999999999997780 ) ;
#191 = COORDINATED_UNIVERSAL_TIME_OFFSET ( 1, 0, .AHEAD. ) ;
#192 = ORIENTED_EDGE ( 'NONE', *, *, #295, .T. ) ;
#193 = APPLICATION_CONTEXT ( 'configuration controlled 3d designs of mechanical parts and assemblies' ) ;
#194 = CARTESIAN_POINT ( 'NONE',  ( 0.0000000000000000000, 0.0000000000000000000, 0.0000000000000000000 ) ) ;
#195 = AXIS2_PLACEMENT_3D ( 'NONE', #300, #136, #158 ) ;
#196 = APPROVAL ( #58, 'UNSPECIFIED' ) ;
#197 = DIRECTION ( 'NONE',  ( 1.000000000000000000, 0.0000000000000000000, 0.0000000000000000000 ) ) ;
#198 = ORIENTED_EDGE ( 'NONE', *, *, #48, .T. ) ;
#199 = PERSON ( 'UNSPECIFIED', 'UNSPECIFIED', 'UNSPECIFIED', ('UNSPECIFIED'), ('UNSPECIFIED'), ('UNSPECIFIED') ) ;
#200 = ORIENTED_EDGE ( 'NONE', *, *, #128, .T. ) ;
#201 = FACE_OUTER_BOUND ( 'NONE', #54, .T. ) ;
#202 = AXIS2_PLACEMENT_3D ( 'NONE', #87, #47, #89 ) ;
#203 = PRODUCT ( '200784', '200784', '', ( #81 ) ) ;
#204 = DIRECTION ( 'NONE',  ( -3.491481338843133355E-15, 1.224646799147353207E-16, -1.000000000000000000 ) ) ;
#205 = DIRECTION ( 'NONE',  ( 4.275831445896958607E-31, 1.000000000000000000, 1.224646799147353207E-16 ) ) ;
#206 = CYLINDRICAL_SURFACE ( 'NONE', #236, 0.7499999999999995559 ) ;
#207 = DIRECTION ( 'NONE',  ( -3.491481338843133355E-15, 1.224646799147353207E-16, -1.000000000000000000 ) ) ;
#208 = DIRECTION ( 'NONE',  ( 0.0000000000000000000, 1.000000000000000000, 0.0000000000000000000 ) ) ;
#209 = DIRECTION ( 'NONE',  ( -3.491481338843133355E-15, 1.224646799147353207E-16, -1.000000000000000000 ) ) ;
#210 = CC_DESIGN_PERSON_AND_ORGANIZATION_ASSIGNMENT ( #11, #55, ( #166 ) ) ;
#211 = AXIS2_PLACEMENT_3D ( 'NONE', #234, #33, #261 ) ;
#212 = CARTESIAN_POINT ( 'NONE',  ( -2.589710475348204873E-31, 9.083481584364955067E-33, -7.417225595730318781E-17 ) ) ;
#213 = FACE_OUTER_BOUND ( 'NONE', #216, .T. ) ;
#214 = APPROVAL_DATE_TIME ( #20, #10 ) ;
#215 = CIRCLE ( 'NONE', #226, 0.6500000000000001332 ) ;
#216 = EDGE_LOOP ( 'NONE', ( #200 ) ) ;
#217 = APPROVAL_STATUS ( 'not_yet_approved' ) ;
#218 = ORIENTED_EDGE ( 'NONE', *, *, #269, .T. ) ;
#219 = PERSON_AND_ORGANIZATION_ROLE ( 'creator' ) ;
#220 = CC_DESIGN_PERSON_AND_ORGANIZATION_ASSIGNMENT ( #102, #240, ( #203 ) ) ;
#221 = CALENDAR_DATE ( 2021, 1, 12 ) ;
#222 = ORIENTED_EDGE ( 'NONE', *, *, #269, .F. ) ;
#223 = FACE_OUTER_BOUND ( 'NONE', #126, .T. ) ;
#224 = ADVANCED_FACE ( 'NONE', ( #274, #155 ), #1, .T. ) ;
#225 = EDGE_LOOP ( 'NONE', ( #14 ) ) ;
#226 = AXIS2_PLACEMENT_3D ( 'NONE', #26, #285, #286 ) ;
#227 = CARTESIAN_POINT ( 'NONE',  ( 2.444036937190193349E-14, 5.624099184981953029E-33, 7.000000000000000000 ) ) ;
#228 = EDGE_CURVE ( 'NONE', #9, #9, #215, .T. ) ;
#229 = FACE_OUTER_BOUND ( 'NONE', #152, .T. ) ;
#230 = DIRECTION ( 'NONE',  ( 4.275831445896958607E-31, 1.000000000000000000, 1.224646799147353207E-16 ) ) ;
#231 = AXIS2_PLACEMENT_3D ( 'NONE', #25, #29, #86 ) ;
#232 = CC_DESIGN_APPROVAL ( #10, ( #166 ) ) ;
#233 = DIRECTION ( 'NONE',  ( -3.491481338843133355E-15, 1.224646799147353207E-16, -1.000000000000000000 ) ) ;
#234 = CARTESIAN_POINT ( 'NONE',  ( 2.444036937190193349E-14, 5.624099184981953029E-33, 7.000000000000000000 ) ) ;
#235 = DIRECTION ( 'NONE',  ( -3.491481338843133355E-15, 1.224646799147353207E-16, -1.000000000000000000 ) ) ;
#236 = AXIS2_PLACEMENT_3D ( 'NONE', #297, #46, #63 ) ;
#237 = CC_DESIGN_APPROVAL ( #196, ( #31 ) ) ;
#238 = DIRECTION ( 'NONE',  ( -5.135813185032634780E-31, -1.000000000000000000, -1.445602896647340889E-16 ) ) ;
#239 = VERTEX_POINT ( 'NONE', #160 ) ;
#240 = PERSON_AND_ORGANIZATION_ROLE ( 'design_owner' ) ;
#241 =( NAMED_UNIT ( * ) SI_UNIT ( $, .STERADIAN. ) SOLID_ANGLE_UNIT ( ) );
#242 = ORIENTED_EDGE ( 'NONE', *, *, #41, .F. ) ;
#243 = APPROVAL_STATUS ( 'not_yet_approved' ) ;
#244 = SECURITY_CLASSIFICATION_LEVEL ( 'unclassified' ) ;
#245 = ORIENTED_EDGE ( 'NONE', *, *, #188, .T. ) ;
#246 = AXIS2_PLACEMENT_3D ( 'NONE', #249, #204, #205 ) ;
#247 = ADVANCED_FACE ( 'NONE', ( #187, #71 ), #19, .T. ) ;
#248 = LOCAL_TIME ( 11, 40, 10.00000000000000000, #173 ) ;
#249 = CARTESIAN_POINT ( 'NONE',  ( 1.326762908760390423E-13, 8.998558695971103225E-33, 38.00000000000000000 ) ) ;
#250 = EDGE_CURVE ( 'NONE', #96, #96, #134, .T. ) ;
#251 = PRODUCT_DEFINITION_SHAPE ( 'NONE', 'NONE',  #258 ) ;
#252 = DIRECTION ( 'NONE',  ( 3.491481338843133355E-15, -1.224646799147353207E-16, 1.000000000000000000 ) ) ;
#253 = EDGE_CURVE ( 'NONE', #289, #289, #153, .T. ) ;
#254 = DIRECTION ( 'NONE',  ( -3.491481338843133355E-15, 1.224646799147353207E-16, -1.000000000000000000 ) ) ;
#255 = CC_DESIGN_DATE_AND_TIME_ASSIGNMENT ( #145, #270, ( #166 ) ) ;
#256 = PLANE ( 'NONE',  #44 ) ;
#257 = DIRECTION ( 'NONE',  ( -3.491481338843133355E-15, 1.224646799147353207E-16, -1.000000000000000000 ) ) ;
#258 = PRODUCT_DEFINITION ( 'UNKNOWN', '', #31, #3 ) ;
#259 = APPROVAL_PERSON_ORGANIZATION ( #123, #186, #291 ) ;
#260 = CARTESIAN_POINT ( 'NONE',  ( 8.728703347107831416E-16, -3.061616997868382402E-17, 0.2499999999999999445 ) ) ;
#261 = DIRECTION ( 'NONE',  ( -4.275831445896958607E-31, -1.000000000000000000, -1.224646799147353207E-16 ) ) ;
#262 = VERTEX_POINT ( 'NONE', #53 ) ;
#263 = PERSON_AND_ORGANIZATION ( #199, #52 ) ;
#264 = ORIENTED_EDGE ( 'NONE', *, *, #41, .T. ) ;
#265 = CC_DESIGN_PERSON_AND_ORGANIZATION_ASSIGNMENT ( #75, #168, ( #31 ) ) ;
#266 = AXIS2_PLACEMENT_3D ( 'NONE', #92, #233, #117 ) ;
#267 = PERSON_AND_ORGANIZATION ( #199, #52 ) ;
#268 = EDGE_LOOP ( 'NONE', ( #59 ) ) ;
#269 = EDGE_CURVE ( 'NONE', #262, #262, #284, .T. ) ;
#270 = DATE_TIME_ROLE ( 'classification_date' ) ;
#271 = PERSON_AND_ORGANIZATION_ROLE ( 'creator' ) ;
#272 = ORIENTED_EDGE ( 'NONE', *, *, #253, .F. ) ;
#273 = AXIS2_PLACEMENT_3D ( 'NONE', #4, #257, #34 ) ;
#274 = FACE_BOUND ( 'NONE', #167, .T. ) ;
#275 = LOCAL_TIME ( 11, 40, 10.00000000000000000, #191 ) ;
#276 = DIRECTION ( 'NONE',  ( 0.0000000000000000000, 1.000000000000000000, 0.0000000000000000000 ) ) ;
#277 = DIRECTION ( 'NONE',  ( 3.491481338843133355E-15, -1.224646799147353207E-16, 1.000000000000000000 ) ) ;
#278 = ADVANCED_FACE ( 'NONE', ( #32, #139 ), #12, .F. ) ;
#279 = CARTESIAN_POINT ( 'NONE',  ( 0.0000000000000000000, 0.0000000000000000000, 0.0000000000000000000 ) ) ;
#280 = AXIS2_PLACEMENT_3D ( 'NONE', #109, #254, #178 ) ;
#281 = PLANE ( 'NONE',  #184 ) ;
#282 = VERTEX_POINT ( 'NONE', #116 ) ;
#283 = DIRECTION ( 'NONE',  ( -3.491481338843133355E-15, 1.224646799147353207E-16, -1.000000000000000000 ) ) ;
#284 = CIRCLE ( 'NONE', #61, 1.200000000000003286 ) ;
#285 = DIRECTION ( 'NONE',  ( -3.491481338843133355E-15, 1.224646799147353207E-16, -1.000000000000000000 ) ) ;
#286 = DIRECTION ( 'NONE',  ( 0.0000000000000000000, 1.000000000000000000, 0.0000000000000000000 ) ) ;
#287 = EDGE_CURVE ( 'NONE', #239, #239, #179, .T. ) ;
#288 = ADVANCED_BREP_SHAPE_REPRESENTATION ( '200784', ( #74, #73, #175 ), #65 ) ;
#289 = VERTEX_POINT ( 'NONE', #72 ) ;
#290 = PERSON_AND_ORGANIZATION ( #199, #52 ) ;
#291 = APPROVAL_ROLE ( '' ) ;
#292 = APPLICATION_CONTEXT ( 'configuration controlled 3d designs of mechanical parts and assemblies' ) ;
#293 = AXIS2_PLACEMENT_3D ( 'NONE', #260, #185, #238 ) ;
#294 = COORDINATED_UNIVERSAL_TIME_OFFSET ( 1, 0, .AHEAD. ) ;
#295 = EDGE_CURVE ( 'NONE', #6, #6, #142, .T. ) ;
#296 = EDGE_LOOP ( 'NONE', ( #192 ) ) ;
#297 = CARTESIAN_POINT ( 'NONE',  ( 0.0000000000000000000, 0.0000000000000000000, 0.0000000000000000000 ) ) ;
#298 = ADVANCED_FACE ( 'NONE', ( #213 ), #182, .F. ) ;
#299 = APPROVAL_PERSON_ORGANIZATION ( #40, #10, #39 ) ;
#300 = CARTESIAN_POINT ( 'NONE',  ( 2.444036937190193349E-14, -8.572527594031473190E-16, 7.000000000000000000 ) ) ;
#301 = FACE_OUTER_BOUND ( 'NONE', #268, .T. ) ;
#302 = ADVANCED_FACE ( 'NONE', ( #115, #5 ), #118, .T. ) ;
#303 = FACE_OUTER_BOUND ( 'NONE', #225, .T. ) ;
ENDSEC;
END-ISO-10303-21;
