ISO-10303-21;
HEADER;
FILE_DESCRIPTION (( 'STEP AP203' ),
    '1' );
FILE_NAME ('200783.step',
    '2021-12-01T10:40:09',
    ( '' ),
    ( '' ),
    'SwSTEP 2.0',
    'SolidWorks 2019',
    '' );
FILE_SCHEMA (( 'CONFIG_CONTROL_DESIGN' ));
ENDSEC;

DATA;
#1 = ORIENTED_EDGE ( 'NONE', *, *, #51, .T. ) ;
#2 = LOCAL_TIME ( 11, 40, 9.000000000000000000, #217 ) ;
#3 = AXIS2_PLACEMENT_3D ( 'NONE', #160, #182, #102 ) ;
#4 = APPROVAL_ROLE ( '' ) ;
#5 = ORIENTED_EDGE ( 'NONE', *, *, #296, .T. ) ;
#6 = ADVANCED_FACE ( 'NONE', ( #183 ), #270, .T. ) ;
#7 = PERSON_AND_ORGANIZATION ( #286, #247 ) ;
#8 = EDGE_LOOP ( 'NONE', ( #205 ) ) ;
#9 = DIRECTION ( 'NONE',  ( -3.491481338843133355E-15, 1.224646799147353207E-16, -1.000000000000000000 ) ) ;
#10 = AXIS2_PLACEMENT_3D ( 'NONE', #236, #113, #111 ) ;
#11 = CARTESIAN_POINT ( 'NONE',  ( 7.001216034561318911E-14, -2.455696014032129175E-15, 20.05227969192325688 ) ) ;
#12 = EDGE_LOOP ( 'NONE', ( #144 ) ) ;
#13 = DIRECTION ( 'NONE',  ( 0.0000000000000000000, 1.000000000000000000, 0.0000000000000000000 ) ) ;
#14 = APPROVAL ( #195, 'UNSPECIFIED' ) ;
#15 = DIRECTION ( 'NONE',  ( -4.275831445896958607E-31, -1.000000000000000000, -1.224646799147353207E-16 ) ) ;
#16 = DIRECTION ( 'NONE',  ( -3.491481338843133355E-15, 1.224646799147353207E-16, -1.000000000000000000 ) ) ;
#17 = EDGE_LOOP ( 'NONE', ( #90 ) ) ;
#18 = DIRECTION ( 'NONE',  ( -3.491481338843133355E-15, 1.224646799147353207E-16, -1.000000000000000000 ) ) ;
#19 =( GEOMETRIC_REPRESENTATION_CONTEXT ( 3 ) GLOBAL_UNCERTAINTY_ASSIGNED_CONTEXT ( ( #187 ) ) GLOBAL_UNIT_ASSIGNED_CONTEXT ( ( #97, #33, #104 ) ) REPRESENTATION_CONTEXT ( 'NONE', 'WORKASPACE' ) );
#20 = CIRCLE ( 'NONE', #114, 0.6400000000000000133 ) ;
#21 = VERTEX_POINT ( 'NONE', #26 ) ;
#22 = ADVANCED_FACE ( 'NONE', ( #291, #124 ), #101, .T. ) ;
#23 = EDGE_LOOP ( 'NONE', ( #5 ) ) ;
#24 = VERTEX_POINT ( 'NONE', #73 ) ;
#25 = AXIS2_PLACEMENT_3D ( 'NONE', #34, #294, #88 ) ;
#26 = CARTESIAN_POINT ( 'NONE',  ( 2.444036937190193349E-14, 0.7249999999999990896, 7.000000000000000000 ) ) ;
#27 = ADVANCED_FACE ( 'NONE', ( #84, #171 ), #268, .T. ) ;
#28 = DATE_AND_TIME ( #156, #109 ) ;
#29 = DIRECTION ( 'NONE',  ( -4.275831445896958607E-31, -1.000000000000000000, -1.224646799147353207E-16 ) ) ;
#30 = PERSON_AND_ORGANIZATION_ROLE ( 'creator' ) ;
#31 = DIRECTION ( 'NONE',  ( -3.491481338843133355E-15, 1.224646799147353207E-16, -1.000000000000000000 ) ) ;
#32 = DIRECTION ( 'NONE',  ( 0.0000000000000000000, -1.000000000000000000, 0.0000000000000000000 ) ) ;
#33 =( NAMED_UNIT ( * ) PLANE_ANGLE_UNIT ( ) SI_UNIT ( $, .RADIAN. ) );
#34 = CARTESIAN_POINT ( 'NONE',  ( 0.0000000000000000000, 0.0000000000000000000, 0.0000000000000000000 ) ) ;
#35 = FACE_OUTER_BOUND ( 'NONE', #287, .T. ) ;
#36 = CARTESIAN_POINT ( 'NONE',  ( 5.358479882634335789E-14, -1.879501735712543302E-15, 15.34729635533384595 ) ) ;
#37 = CARTESIAN_POINT ( 'NONE',  ( 1.316288464743861212E-13, 1.499999999999998668, 37.69999999999999574 ) ) ;
#38 = ORIENTED_EDGE ( 'NONE', *, *, #170, .F. ) ;
#39 = DIRECTION ( 'NONE',  ( -4.275831445896958607E-31, -1.000000000000000000, -1.224646799147353207E-16 ) ) ;
#40 = AXIS2_PLACEMENT_3D ( 'NONE', #129, #227, #210 ) ;
#41 = DIRECTION ( 'NONE',  ( -3.491481338843133355E-15, 1.224646799147353207E-16, -1.000000000000000000 ) ) ;
#42 = CC_DESIGN_APPROVAL ( #14, ( #232 ) ) ;
#43 = CC_DESIGN_PERSON_AND_ORGANIZATION_ASSIGNMENT ( #191, #241, ( #232 ) ) ;
#44 = APPROVAL_STATUS ( 'not_yet_approved' ) ;
#45 = DIRECTION ( 'NONE',  ( -3.491481338843133355E-15, 1.224646799147353207E-16, -1.000000000000000000 ) ) ;
#46 = DIRECTION ( 'NONE',  ( 4.275831445896958607E-31, 1.000000000000000000, 1.224646799147353207E-16 ) ) ;
#47 = DATE_AND_TIME ( #261, #262 ) ;
#48 = CIRCLE ( 'NONE', #214, 0.7249999999999999778 ) ;
#49 = ORIENTED_EDGE ( 'NONE', *, *, #141, .T. ) ;
#50 = PERSON_AND_ORGANIZATION ( #286, #247 ) ;
#51 = EDGE_CURVE ( 'NONE', #179, #179, #54, .T. ) ;
#52 = ORIENTED_EDGE ( 'NONE', *, *, #196, .F. ) ;
#53 = AXIS2_PLACEMENT_3D ( 'NONE', #224, #9, #65 ) ;
#54 = CIRCLE ( 'NONE', #80, 1.500000000000003331 ) ;
#55 = CARTESIAN_POINT ( 'NONE',  ( 2.444036937190193349E-14, 5.436629212149220828E-33, 7.000000000000000000 ) ) ;
#56 = FACE_OUTER_BOUND ( 'NONE', #288, .T. ) ;
#57 = ORIENTED_EDGE ( 'NONE', *, *, #299, .T. ) ;
#58 = APPLICATION_CONTEXT ( 'configuration controlled 3d designs of mechanical parts and assemblies' ) ;
#59 = CC_DESIGN_PERSON_AND_ORGANIZATION_ASSIGNMENT ( #143, #100, ( #74 ) ) ;
#60 = DIRECTION ( 'NONE',  ( 0.0000000000000000000, 1.000000000000000000, 0.0000000000000000000 ) ) ;
#61 = CIRCLE ( 'NONE', #53, 0.7249999999999999778 ) ;
#62 = PLANE ( 'NONE',  #215 ) ;
#63 = DIRECTION ( 'NONE',  ( 4.275831445896958607E-31, 1.000000000000000000, 1.224646799147353207E-16 ) ) ;
#64 = DIRECTION ( 'NONE',  ( 0.0000000000000000000, 1.000000000000000000, 0.0000000000000000000 ) ) ;
#65 = DIRECTION ( 'NONE',  ( 0.0000000000000000000, 1.000000000000000000, 0.0000000000000000000 ) ) ;
#66 = APPLICATION_CONTEXT ( 'configuration controlled 3d designs of mechanical parts and assemblies' ) ;
#67 = CONICAL_SURFACE ( 'NONE', #79, 1.200000000000003286, 0.7853981633974453924 ) ;
#68 = APPROVAL_ROLE ( '' ) ;
#69 = COORDINATED_UNIVERSAL_TIME_OFFSET ( 1, 0, .AHEAD. ) ;
#70 = DIRECTION ( 'NONE',  ( 0.0000000000000000000, 1.000000000000000000, 0.0000000000000000000 ) ) ;
#71 = COORDINATED_UNIVERSAL_TIME_OFFSET ( 1, 0, .AHEAD. ) ;
#72 = PERSON_AND_ORGANIZATION ( #286, #247 ) ;
#73 = CARTESIAN_POINT ( 'NONE',  ( 2.444036937190193349E-14, 0.7249999999999990896, 7.000000000000000000 ) ) ;
#74 = SECURITY_CLASSIFICATION ( '', '', #168 ) ;
#75 = CARTESIAN_POINT ( 'NONE',  ( 8.728703347107835360E-16, 0.7249999999999990896, 0.2500000000000000555 ) ) ;
#76 = TOROIDAL_SURFACE ( 'NONE', #237, 2.640000000000000124, 2.000000000000000888 ) ;
#77 = ORIENTED_EDGE ( 'NONE', *, *, #235, .F. ) ;
#78 = CARTESIAN_POINT ( 'NONE',  ( 2.495440033306911238E-14, 0.6399999999999982370, 7.147224318643358387 ) ) ;
#79 = AXIS2_PLACEMENT_3D ( 'NONE', #276, #269, #64 ) ;
#80 = AXIS2_PLACEMENT_3D ( 'NONE', #86, #31, #60 ) ;
#81 = DIRECTION ( 'NONE',  ( 4.275831445896958607E-31, 1.000000000000000000, 1.224646799147353207E-16 ) ) ;
#82 = CC_DESIGN_DATE_AND_TIME_ASSIGNMENT ( #47, #189, ( #232 ) ) ;
#83 = APPROVAL ( #44, 'UNSPECIFIED' ) ;
#84 = FACE_BOUND ( 'NONE', #293, .T. ) ;
#85 = ORIENTED_EDGE ( 'NONE', *, *, #300, .T. ) ;
#86 = CARTESIAN_POINT ( 'NONE',  ( 1.316288464743861212E-13, -4.616918432785521081E-15, 37.69999999999999574 ) ) ;
#87 = AXIS2_PLACEMENT_3D ( 'NONE', #11, #150, #32 ) ;
#88 = DIRECTION ( 'NONE',  ( 4.275831445896958607E-31, 1.000000000000000000, 1.224646799147353207E-16 ) ) ;
#89 = MANIFOLD_SOLID_BREP ( 'Corps-Déplacer/Copier1[2]', #94 ) ;
#90 = ORIENTED_EDGE ( 'NONE', *, *, #51, .F. ) ;
#91 = DIRECTION ( 'NONE',  ( 0.0000000000000000000, 1.000000000000000000, 0.0000000000000000000 ) ) ;
#92 = LOCAL_TIME ( 11, 40, 9.000000000000000000, #163 ) ;
#93 = APPROVAL_DATE_TIME ( #301, #14 ) ;
#94 = CLOSED_SHELL ( 'NONE', ( #252, #27, #137, #6 ) ) ;
#95 = ADVANCED_FACE ( 'NONE', ( #290, #127 ), #167, .T. ) ;
#96 = VERTEX_POINT ( 'NONE', #75 ) ;
#97 =( LENGTH_UNIT ( ) NAMED_UNIT ( * ) SI_UNIT ( .MILLI., .METRE. ) );
#98 = AXIS2_PLACEMENT_3D ( 'NONE', #164, #45, #70 ) ;
#99 = CC_DESIGN_PERSON_AND_ORGANIZATION_ASSIGNMENT ( #185, #30, ( #118 ) ) ;
#100 = PERSON_AND_ORGANIZATION_ROLE ( 'classification_officer' ) ;
#101 = CYLINDRICAL_SURFACE ( 'NONE', #193, 0.6399999999999994582 ) ;
#102 = DIRECTION ( 'NONE',  ( 4.275831445896958607E-31, 1.000000000000000000, 1.224646799147353207E-16 ) ) ;
#103 = ORIENTED_EDGE ( 'NONE', *, *, #239, .F. ) ;
#104 =( NAMED_UNIT ( * ) SI_UNIT ( $, .STERADIAN. ) SOLID_ANGLE_UNIT ( ) );
#105 = CYLINDRICAL_SURFACE ( 'NONE', #25, 1.500000000000000444 ) ;
#106 = ADVANCED_FACE ( 'NONE', ( #176 ), #62, .F. ) ;
#107 = FACE_OUTER_BOUND ( 'NONE', #207, .T. ) ;
#108 = DIRECTION ( 'NONE',  ( 0.0000000000000000000, 1.000000000000000000, 0.0000000000000000000 ) ) ;
#109 = LOCAL_TIME ( 11, 40, 9.000000000000000000, #69 ) ;
#110 = ADVANCED_FACE ( 'NONE', ( #35, #132 ), #76, .F. ) ;
#111 = DIRECTION ( 'NONE',  ( 1.000000000000000000, 0.0000000000000000000, 0.0000000000000000000 ) ) ;
#112 = ORIENTED_EDGE ( 'NONE', *, *, #300, .F. ) ;
#113 = DIRECTION ( 'NONE',  ( 0.0000000000000000000, 0.0000000000000000000, 1.000000000000000000 ) ) ;
#114 = AXIS2_PLACEMENT_3D ( 'NONE', #245, #125, #271 ) ;
#115 = CIRCLE ( 'NONE', #200, 0.5806624327025946553 ) ;
#116 = PRODUCT_RELATED_PRODUCT_CATEGORY ( 'detail', '', ( #242 ) ) ;
#117 = ADVANCED_FACE ( 'NONE', ( #107, #298 ), #249, .T. ) ;
#118 = PRODUCT_DEFINITION_FORMATION_WITH_SPECIFIED_SOURCE ( 'ANY', '', #242, .NOT_KNOWN. ) ;
#119 = CARTESIAN_POINT ( 'NONE',  ( 1.326762908760390423E-13, 1.199999999999998845, 38.00000000000000000 ) ) ;
#120 = EDGE_LOOP ( 'NONE', ( #85 ) ) ;
#121 = EDGE_LOOP ( 'NONE', ( #103 ) ) ;
#122 = VERTEX_POINT ( 'NONE', #78 ) ;
#123 = DATE_AND_TIME ( #216, #2 ) ;
#124 = FACE_OUTER_BOUND ( 'NONE', #8, .T. ) ;
#125 = DIRECTION ( 'NONE',  ( -3.491481338843133355E-15, 1.224646799147353207E-16, -1.000000000000000000 ) ) ;
#126 = ADVANCED_FACE ( 'NONE', ( #192 ), #280, .F. ) ;
#127 = FACE_OUTER_BOUND ( 'NONE', #233, .T. ) ;
#128 = AXIS2_PLACEMENT_3D ( 'NONE', #277, #41, #184 ) ;
#129 = CARTESIAN_POINT ( 'NONE',  ( 7.001216034561318911E-14, -2.455696014032129175E-15, 20.05227969192325688 ) ) ;
#130 = EDGE_LOOP ( 'NONE', ( #274 ) ) ;
#131 = CARTESIAN_POINT ( 'NONE',  ( 2.444036937190193349E-14, -8.572527594031473190E-16, 7.000000000000000000 ) ) ;
#132 = FACE_OUTER_BOUND ( 'NONE', #218, .T. ) ;
#133 = DIRECTION ( 'NONE',  ( 0.0000000000000000000, 1.000000000000000000, 0.0000000000000000000 ) ) ;
#134 = ORIENTED_EDGE ( 'NONE', *, *, #296, .F. ) ;
#135 = AXIS2_PLACEMENT_3D ( 'NONE', #272, #229, #174 ) ;
#136 = AXIS2_PLACEMENT_3D ( 'NONE', #165, #260, #46 ) ;
#137 = ADVANCED_FACE ( 'NONE', ( #302, #166 ), #213, .T. ) ;
#138 = CC_DESIGN_PERSON_AND_ORGANIZATION_ASSIGNMENT ( #297, #279, ( #242 ) ) ;
#139 = CIRCLE ( 'NONE', #278, 1.200000000000003286 ) ;
#140 = CALENDAR_DATE ( 2021, 1, 12 ) ;
#141 = EDGE_CURVE ( 'NONE', #173, #173, #115, .T. ) ;
#142 = APPROVAL_STATUS ( 'not_yet_approved' ) ;
#143 = PERSON_AND_ORGANIZATION ( #286, #247 ) ;
#144 = ORIENTED_EDGE ( 'NONE', *, *, #299, .F. ) ;
#145 = SHAPE_DEFINITION_REPRESENTATION ( #147, #303 ) ;
#146 = ORIENTED_EDGE ( 'NONE', *, *, #170, .T. ) ;
#147 = PRODUCT_DEFINITION_SHAPE ( 'NONE', 'NONE',  #232 ) ;
#148 = CARTESIAN_POINT ( 'NONE',  ( 1.326762908760390423E-13, -4.653657836759941941E-15, 38.00000000000000000 ) ) ;
#149 = CARTESIAN_POINT ( 'NONE',  ( 0.0000000000000000000, 0.0000000000000000000, 0.0000000000000000000 ) ) ;
#150 = DIRECTION ( 'NONE',  ( 3.491481338843133355E-15, -1.224646799147353207E-16, 1.000000000000000000 ) ) ;
#151 = CARTESIAN_POINT ( 'NONE',  ( 2.444036937190193349E-14, 5.436629212149220828E-33, 7.000000000000000000 ) ) ;
#152 = DIRECTION ( 'NONE',  ( -3.491481338843133355E-15, 1.224646799147353207E-16, -1.000000000000000000 ) ) ;
#153 = EDGE_LOOP ( 'NONE', ( #225 ) ) ;
#154 = PLANE ( 'NONE',  #186 ) ;
#155 = CARTESIAN_POINT ( 'NONE',  ( 0.0000000000000000000, 0.5806624327025946553, 0.0000000000000000000 ) ) ;
#156 = CALENDAR_DATE ( 2021, 1, 12 ) ;
#157 = CARTESIAN_POINT ( 'NONE',  ( 2.495440033306911238E-14, -8.752825384614710987E-16, 7.147224318643358387 ) ) ;
#158 = CIRCLE ( 'NONE', #190, 0.6399999999999991251 ) ;
#159 = VERTEX_POINT ( 'NONE', #204 ) ;
#160 = CARTESIAN_POINT ( 'NONE',  ( 0.0000000000000000000, 0.0000000000000000000, 0.0000000000000000000 ) ) ;
#161 = PERSON_AND_ORGANIZATION_ROLE ( 'design_supplier' ) ;
#162 = CIRCLE ( 'NONE', #40, 1.499999999999997780 ) ;
#163 = COORDINATED_UNIVERSAL_TIME_OFFSET ( 1, 0, .AHEAD. ) ;
#164 = CARTESIAN_POINT ( 'NONE',  ( 2.495440033306911238E-14, -8.752825384614710987E-16, 7.147224318643358387 ) ) ;
#165 = CARTESIAN_POINT ( 'NONE',  ( 1.326762908760390423E-13, 8.998558695971103225E-33, 38.00000000000000000 ) ) ;
#166 = FACE_OUTER_BOUND ( 'NONE', #23, .T. ) ;
#167 = CONICAL_SURFACE ( 'NONE', #87, 1.499999999999997780, 0.1745329251994261199 ) ;
#168 = SECURITY_CLASSIFICATION_LEVEL ( 'unclassified' ) ;
#169 = COORDINATED_UNIVERSAL_TIME_OFFSET ( 1, 0, .AHEAD. ) ;
#170 = EDGE_CURVE ( 'NONE', #159, #159, #259, .T. ) ;
#171 = FACE_OUTER_BOUND ( 'NONE', #197, .T. ) ;
#172 = CARTESIAN_POINT ( 'NONE',  ( -1.241407344600390432E-31, 4.354270819349744648E-33, -3.555531947971739963E-17 ) ) ;
#173 = VERTEX_POINT ( 'NONE', #155 ) ;
#174 = DIRECTION ( 'NONE',  ( -5.312910191413070825E-31, -1.000000000000000000, -1.495451272393801021E-16 ) ) ;
#175 = DIRECTION ( 'NONE',  ( -3.491481338843133355E-15, 1.224646799147353207E-16, -1.000000000000000000 ) ) ;
#176 = FACE_OUTER_BOUND ( 'NONE', #130, .T. ) ;
#177 = CC_DESIGN_SECURITY_CLASSIFICATION ( #74, ( #118 ) ) ;
#178 = FACE_OUTER_BOUND ( 'NONE', #209, .T. ) ;
#179 = VERTEX_POINT ( 'NONE', #37 ) ;
#180 = CLOSED_SHELL ( 'NONE', ( #106, #117, #22, #110, #95, #206, #246, #126 ) ) ;
#181 = ORIENTED_EDGE ( 'NONE', *, *, #281, .F. ) ;
#182 = DIRECTION ( 'NONE',  ( -3.491481338843133355E-15, 1.224646799147353207E-16, -1.000000000000000000 ) ) ;
#183 = FACE_OUTER_BOUND ( 'NONE', #248, .T. ) ;
#184 = DIRECTION ( 'NONE',  ( 5.312910191413070825E-31, 1.000000000000000000, 1.495451272393801021E-16 ) ) ;
#185 = PERSON_AND_ORGANIZATION ( #286, #247 ) ;
#186 = AXIS2_PLACEMENT_3D ( 'NONE', #172, #253, #39 ) ;
#187 = UNCERTAINTY_MEASURE_WITH_UNIT (LENGTH_MEASURE( 1.000000000000000082E-05 ), #97, 'distance_accuracy_value', 'NONE');
#188 = MECHANICAL_CONTEXT ( 'NONE', #66, 'mechanical' ) ;
#189 = DATE_TIME_ROLE ( 'creation_date' ) ;
#190 = AXIS2_PLACEMENT_3D ( 'NONE', #157, #255, #133 ) ;
#191 = PERSON_AND_ORGANIZATION ( #286, #247 ) ;
#192 = FACE_OUTER_BOUND ( 'NONE', #121, .T. ) ;
#193 = AXIS2_PLACEMENT_3D ( 'NONE', #149, #203, #81 ) ;
#194 = MANIFOLD_SOLID_BREP ( 'Corps-Déplacer/Copier1[1]', #180 ) ;
#195 = APPROVAL_STATUS ( 'not_yet_approved' ) ;
#196 = EDGE_CURVE ( 'NONE', #222, #222, #162, .T. ) ;
#197 = EDGE_LOOP ( 'NONE', ( #57 ) ) ;
#198 = CC_DESIGN_PERSON_AND_ORGANIZATION_ASSIGNMENT ( #7, #161, ( #118 ) ) ;
#199 = EDGE_LOOP ( 'NONE', ( #112 ) ) ;
#200 = AXIS2_PLACEMENT_3D ( 'NONE', #234, #152, #289 ) ;
#201 = CC_DESIGN_APPROVAL ( #83, ( #118 ) ) ;
#202 = CIRCLE ( 'NONE', #128, 0.7249999999999990896 ) ;
#203 = DIRECTION ( 'NONE',  ( -3.491481338843133355E-15, 1.224646799147353207E-16, -1.000000000000000000 ) ) ;
#204 = CARTESIAN_POINT ( 'NONE',  ( 5.358479882634335789E-14, 0.6703844939755787546, 15.34729635533384595 ) ) ;
#205 = ORIENTED_EDGE ( 'NONE', *, *, #281, .T. ) ;
#206 = ADVANCED_FACE ( 'NONE', ( #231, #178 ), #105, .T. ) ;
#207 = EDGE_LOOP ( 'NONE', ( #77 ) ) ;
#208 = CARTESIAN_POINT ( 'NONE',  ( 5.237222008264700033E-14, -1.734723475976807094E-15, 15.00000000000000000 ) ) ;
#209 = EDGE_LOOP ( 'NONE', ( #1 ) ) ;
#210 = DIRECTION ( 'NONE',  ( 0.0000000000000000000, 1.000000000000000000, 0.0000000000000000000 ) ) ;
#211 = APPROVAL_DATE_TIME ( #28, #83 ) ;
#212 = LOCAL_TIME ( 11, 40, 9.000000000000000000, #169 ) ;
#213 = CYLINDRICAL_SURFACE ( 'NONE', #3, 0.7249999999999995337 ) ;
#214 = AXIS2_PLACEMENT_3D ( 'NONE', #131, #16, #91 ) ;
#215 = AXIS2_PLACEMENT_3D ( 'NONE', #151, #250, #15 ) ;
#216 = CALENDAR_DATE ( 2021, 1, 12 ) ;
#217 = COORDINATED_UNIVERSAL_TIME_OFFSET ( 1, 0, .AHEAD. ) ;
#218 = EDGE_LOOP ( 'NONE', ( #146 ) ) ;
#219 = DATE_TIME_ROLE ( 'classification_date' ) ;
#220 = AXIS2_PLACEMENT_3D ( 'NONE', #55, #244, #29 ) ;
#221 = EDGE_LOOP ( 'NONE', ( #52 ) ) ;
#222 = VERTEX_POINT ( 'NONE', #240 ) ;
#223 = EDGE_LOOP ( 'NONE', ( #38 ) ) ;
#224 = CARTESIAN_POINT ( 'NONE',  ( 2.444036937190193349E-14, -8.572527594031473190E-16, 7.000000000000000000 ) ) ;
#225 = ORIENTED_EDGE ( 'NONE', *, *, #239, .T. ) ;
#226 = APPROVAL ( #142, 'UNSPECIFIED' ) ;
#227 = DIRECTION ( 'NONE',  ( -3.491481338843133355E-15, 1.224646799147353207E-16, -1.000000000000000000 ) ) ;
#228 = CC_DESIGN_DATE_AND_TIME_ASSIGNMENT ( #123, #219, ( #74 ) ) ;
#229 = DIRECTION ( 'NONE',  ( 3.491481338843133355E-15, -1.224646799147353207E-16, 1.000000000000000000 ) ) ;
#230 = FACE_OUTER_BOUND ( 'NONE', #17, .T. ) ;
#231 = FACE_OUTER_BOUND ( 'NONE', #221, .T. ) ;
#232 = PRODUCT_DEFINITION ( 'UNKNOWN', '', #118, #292 ) ;
#233 = EDGE_LOOP ( 'NONE', ( #265 ) ) ;
#234 = CARTESIAN_POINT ( 'NONE',  ( -2.482814689200780864E-31, 8.708541638699489297E-33, -7.111063895943479925E-17 ) ) ;
#235 = EDGE_CURVE ( 'NONE', #21, #21, #48, .T. ) ;
#236 = CARTESIAN_POINT ( 'NONE',  ( 0.0000000000000000000, 0.0000000000000000000, 0.0000000000000000000 ) ) ;
#237 = AXIS2_PLACEMENT_3D ( 'NONE', #208, #275, #63 ) ;
#238 = APPROVAL_ROLE ( '' ) ;
#239 = EDGE_CURVE ( 'NONE', #283, #283, #139, .T. ) ;
#240 = CARTESIAN_POINT ( 'NONE',  ( 7.001216034561318911E-14, 1.499999999999995559, 20.05227969192325688 ) ) ;
#241 = PERSON_AND_ORGANIZATION_ROLE ( 'creator' ) ;
#242 = PRODUCT ( '200783', '200783', '', ( #188 ) ) ;
#243 = APPROVAL_PERSON_ORGANIZATION ( #50, #14, #68 ) ;
#244 = DIRECTION ( 'NONE',  ( 3.491481338843133355E-15, -1.224646799147353207E-16, 1.000000000000000000 ) ) ;
#245 = CARTESIAN_POINT ( 'NONE',  ( 5.237222008264700033E-14, -1.836970198721029589E-15, 15.00000000000000000 ) ) ;
#246 = ADVANCED_FACE ( 'NONE', ( #230, #273 ), #67, .T. ) ;
#247 = ORGANIZATION ( 'UNSPECIFIED', 'UNSPECIFIED', '' ) ;
#248 = EDGE_LOOP ( 'NONE', ( #134 ) ) ;
#249 = CONICAL_SURFACE ( 'NONE', #98, 0.6399999999999991251, 0.5235987755982937086 ) ;
#250 = DIRECTION ( 'NONE',  ( 3.491481338843133355E-15, -1.224646799147353207E-16, 1.000000000000000000 ) ) ;
#251 = ORIENTED_EDGE ( 'NONE', *, *, #141, .F. ) ;
#252 = ADVANCED_FACE ( 'NONE', ( #56 ), #154, .F. ) ;
#253 = DIRECTION ( 'NONE',  ( 3.491481338843133355E-15, -1.224646799147353207E-16, 1.000000000000000000 ) ) ;
#254 = APPROVAL_PERSON_ORGANIZATION ( #72, #226, #4 ) ;
#255 = DIRECTION ( 'NONE',  ( -3.491481338843133355E-15, 1.224646799147353207E-16, -1.000000000000000000 ) ) ;
#256 = APPLICATION_PROTOCOL_DEFINITION ( 'international standard', 'config_control_design', 1994, #58 ) ;
#257 = CC_DESIGN_APPROVAL ( #226, ( #74 ) ) ;
#258 = PERSON_AND_ORGANIZATION ( #286, #247 ) ;
#259 = CIRCLE ( 'NONE', #263, 0.6703844939755806420 ) ;
#260 = DIRECTION ( 'NONE',  ( -3.491481338843133355E-15, 1.224646799147353207E-16, -1.000000000000000000 ) ) ;
#261 = CALENDAR_DATE ( 2021, 1, 12 ) ;
#262 = LOCAL_TIME ( 11, 40, 9.000000000000000000, #71 ) ;
#263 = AXIS2_PLACEMENT_3D ( 'NONE', #36, #18, #13 ) ;
#264 = APPROVAL_DATE_TIME ( #267, #226 ) ;
#265 = ORIENTED_EDGE ( 'NONE', *, *, #196, .T. ) ;
#266 = APPROVAL_PERSON_ORGANIZATION ( #258, #83, #238 ) ;
#267 = DATE_AND_TIME ( #285, #212 ) ;
#268 = CONICAL_SURFACE ( 'NONE', #135, 0.7249999999999990896, 0.5235987755982927094 ) ;
#269 = DIRECTION ( 'NONE',  ( -3.491481338843133355E-15, 1.224646799147353207E-16, -1.000000000000000000 ) ) ;
#270 = PLANE ( 'NONE',  #220 ) ;
#271 = DIRECTION ( 'NONE',  ( 0.0000000000000000000, 1.000000000000000000, 0.0000000000000000000 ) ) ;
#272 = CARTESIAN_POINT ( 'NONE',  ( 8.728703347107831416E-16, -3.061616997868382402E-17, 0.2499999999999999445 ) ) ;
#273 = FACE_BOUND ( 'NONE', #153, .T. ) ;
#274 = ORIENTED_EDGE ( 'NONE', *, *, #235, .T. ) ;
#275 = DIRECTION ( 'NONE',  ( -3.491481338843133355E-15, 1.224646799147353207E-16, -1.000000000000000000 ) ) ;
#276 = CARTESIAN_POINT ( 'NONE',  ( 1.326762908760390423E-13, -4.653657836759941941E-15, 38.00000000000000000 ) ) ;
#277 = CARTESIAN_POINT ( 'NONE',  ( 8.728703347107831416E-16, -3.061616997868382402E-17, 0.2499999999999999445 ) ) ;
#278 = AXIS2_PLACEMENT_3D ( 'NONE', #148, #175, #108 ) ;
#279 = PERSON_AND_ORGANIZATION_ROLE ( 'design_owner' ) ;
#280 = PLANE ( 'NONE',  #136 ) ;
#281 = EDGE_CURVE ( 'NONE', #284, #284, #20, .T. ) ;
#282 = CARTESIAN_POINT ( 'NONE',  ( 5.237222008264700033E-14, 0.6399999999999982370, 15.00000000000000000 ) ) ;
#283 = VERTEX_POINT ( 'NONE', #119 ) ;
#284 = VERTEX_POINT ( 'NONE', #282 ) ;
#285 = CALENDAR_DATE ( 2021, 1, 12 ) ;
#286 = PERSON ( 'UNSPECIFIED', 'UNSPECIFIED', 'UNSPECIFIED', ('UNSPECIFIED'), ('UNSPECIFIED'), ('UNSPECIFIED') ) ;
#287 = EDGE_LOOP ( 'NONE', ( #181 ) ) ;
#288 = EDGE_LOOP ( 'NONE', ( #49 ) ) ;
#289 = DIRECTION ( 'NONE',  ( 4.275831445896958607E-31, 1.000000000000000000, 1.224646799147353207E-16 ) ) ;
#290 = FACE_BOUND ( 'NONE', #223, .T. ) ;
#291 = FACE_OUTER_BOUND ( 'NONE', #199, .T. ) ;
#292 = DESIGN_CONTEXT ( 'detailed design', #58, 'design' ) ;
#293 = EDGE_LOOP ( 'NONE', ( #251 ) ) ;
#294 = DIRECTION ( 'NONE',  ( -3.491481338843133355E-15, 1.224646799147353207E-16, -1.000000000000000000 ) ) ;
#295 = APPLICATION_PROTOCOL_DEFINITION ( 'international standard', 'config_control_design', 1994, #66 ) ;
#296 = EDGE_CURVE ( 'NONE', #24, #24, #61, .T. ) ;
#297 = PERSON_AND_ORGANIZATION ( #286, #247 ) ;
#298 = FACE_BOUND ( 'NONE', #120, .T. ) ;
#299 = EDGE_CURVE ( 'NONE', #96, #96, #202, .T. ) ;
#300 = EDGE_CURVE ( 'NONE', #122, #122, #158, .T. ) ;
#301 = DATE_AND_TIME ( #140, #92 ) ;
#302 = FACE_OUTER_BOUND ( 'NONE', #12, .T. ) ;
#303 = ADVANCED_BREP_SHAPE_REPRESENTATION ( '200783', ( #194, #89, #10 ), #19 ) ;
ENDSEC;
END-ISO-10303-21;
