ISO-10303-21;
HEADER;
FILE_DESCRIPTION (( 'STEP AP203' ),
    '1' );
FILE_NAME ('200782.step',
    '2021-12-01T10:40:09',
    ( '' ),
    ( '' ),
    'SwSTEP 2.0',
    'SolidWorks 2019',
    '' );
FILE_SCHEMA (( 'CONFIG_CONTROL_DESIGN' ));
ENDSEC;

DATA;
#1 = CC_DESIGN_APPROVAL ( #123, ( #118 ) ) ;
#2 = CIRCLE ( 'NONE', #36, 0.7449999999999999956 ) ;
#3 = CARTESIAN_POINT ( 'NONE',  ( 2.444036937190193349E-14, 0.7449999999999991074, 7.000000000000000000 ) ) ;
#4 = EDGE_LOOP ( 'NONE', ( #70 ) ) ;
#5 = EDGE_LOOP ( 'NONE', ( #151 ) ) ;
#6 = DIRECTION ( 'NONE',  ( 3.491481338843133355E-15, -1.224646799147353207E-16, 1.000000000000000000 ) ) ;
#7 = ORIENTED_EDGE ( 'NONE', *, *, #301, .T. ) ;
#8 = DIRECTION ( 'NONE',  ( -5.170281729898625771E-31, -1.000000000000000000, -1.455304929510745904E-16 ) ) ;
#9 = PLANE ( 'NONE',  #132 ) ;
#10 = EDGE_LOOP ( 'NONE', ( #261 ) ) ;
#11 = PRODUCT_RELATED_PRODUCT_CATEGORY ( 'detail', '', ( #43 ) ) ;
#12 = DIRECTION ( 'NONE',  ( 0.0000000000000000000, 1.000000000000000000, 0.0000000000000000000 ) ) ;
#13 = PERSON_AND_ORGANIZATION_ROLE ( 'design_owner' ) ;
#14 = DIRECTION ( 'NONE',  ( 4.275831445896958607E-31, 1.000000000000000000, 1.224646799147353207E-16 ) ) ;
#15 = PERSON_AND_ORGANIZATION ( #120, #241 ) ;
#16 = CARTESIAN_POINT ( 'NONE',  ( -2.568331318118720596E-31, 9.008493595231863008E-33, -7.355993255772951257E-17 ) ) ;
#17 = DIRECTION ( 'NONE',  ( -4.275831445896958607E-31, -1.000000000000000000, -1.224646799147353207E-16 ) ) ;
#18 = LOCAL_TIME ( 11, 40, 9.000000000000000000, #128 ) ;
#19 = FACE_OUTER_BOUND ( 'NONE', #144, .T. ) ;
#20 = EDGE_CURVE ( 'NONE', #277, #277, #2, .T. ) ;
#21 = AXIS2_PLACEMENT_3D ( 'NONE', #168, #190, #111 ) ;
#22 = COORDINATED_UNIVERSAL_TIME_OFFSET ( 1, 0, .AHEAD. ) ;
#23 = VERTEX_POINT ( 'NONE', #115 ) ;
#24 = AXIS2_PLACEMENT_3D ( 'NONE', #161, #251, #247 ) ;
#25 = ORIENTED_EDGE ( 'NONE', *, *, #20, .T. ) ;
#26 = DIRECTION ( 'NONE',  ( -3.491481338843133355E-15, 1.224646799147353207E-16, -1.000000000000000000 ) ) ;
#27 = CIRCLE ( 'NONE', #41, 0.6006624327025947840 ) ;
#28 = ORIENTED_EDGE ( 'NONE', *, *, #234, .T. ) ;
#29 = ADVANCED_FACE ( 'NONE', ( #290 ), #9, .F. ) ;
#30 = DATE_AND_TIME ( #154, #112 ) ;
#31 = FACE_OUTER_BOUND ( 'NONE', #196, .T. ) ;
#32 = CC_DESIGN_DATE_AND_TIME_ASSIGNMENT ( #163, #135, ( #74 ) ) ;
#33 = PERSON_AND_ORGANIZATION ( #120, #241 ) ;
#34 = PLANE ( 'NONE',  #24 ) ;
#35 = TOROIDAL_SURFACE ( 'NONE', #136, 2.649999999999999911, 2.000000000000000444 ) ;
#36 = AXIS2_PLACEMENT_3D ( 'NONE', #180, #215, #201 ) ;
#37 = DIRECTION ( 'NONE',  ( -3.491481338843133355E-15, 1.224646799147353207E-16, -1.000000000000000000 ) ) ;
#38 = PERSON_AND_ORGANIZATION ( #120, #241 ) ;
#39 = FACE_OUTER_BOUND ( 'NONE', #195, .T. ) ;
#40 = DIRECTION ( 'NONE',  ( 0.0000000000000000000, 1.000000000000000000, 0.0000000000000000000 ) ) ;
#41 = AXIS2_PLACEMENT_3D ( 'NONE', #16, #275, #205 ) ;
#42 = FACE_OUTER_BOUND ( 'NONE', #10, .T. ) ;
#43 = PRODUCT ( '200782', '200782', '', ( #208 ) ) ;
#44 = SHAPE_DEFINITION_REPRESENTATION ( #156, #244 ) ;
#45 = ADVANCED_FACE ( 'NONE', ( #96, #199 ), #104, .T. ) ;
#46 = CARTESIAN_POINT ( 'NONE',  ( 8.728703347107835360E-16, 0.7449999999999991074, 0.2500000000000000555 ) ) ;
#47 = CARTESIAN_POINT ( 'NONE',  ( 8.728703347107831416E-16, -3.061616997868382402E-17, 0.2499999999999999445 ) ) ;
#48 = CC_DESIGN_PERSON_AND_ORGANIZATION_ASSIGNMENT ( #133, #138, ( #74 ) ) ;
#49 = EDGE_LOOP ( 'NONE', ( #246 ) ) ;
#50 = EDGE_LOOP ( 'NONE', ( #258 ) ) ;
#51 = CARTESIAN_POINT ( 'NONE',  ( 2.444036937190193349E-14, 5.586605190415406999E-33, 7.000000000000000000 ) ) ;
#52 = DATE_AND_TIME ( #266, #192 ) ;
#53 = EDGE_LOOP ( 'NONE', ( #267 ) ) ;
#54 = MANIFOLD_SOLID_BREP ( 'Corps-Déplacer/Copier1[1]', #232 ) ;
#55 = DIRECTION ( 'NONE',  ( 0.0000000000000000000, -1.000000000000000000, 0.0000000000000000000 ) ) ;
#56 = AXIS2_PLACEMENT_3D ( 'NONE', #262, #37, #12 ) ;
#57 = ADVANCED_FACE ( 'NONE', ( #31 ), #148, .F. ) ;
#58 = VERTEX_POINT ( 'NONE', #271 ) ;
#59 = CLOSED_SHELL ( 'NONE', ( #57, #98, #280, #140 ) ) ;
#60 = CYLINDRICAL_SURFACE ( 'NONE', #153, 0.6499999999999995781 ) ;
#61 = PERSON_AND_ORGANIZATION ( #120, #241 ) ;
#62 = CARTESIAN_POINT ( 'NONE',  ( 6.981414859920802045E-14, -2.448750696904671204E-15, 19.99556687372707486 ) ) ;
#63 = CARTESIAN_POINT ( 'NONE',  ( 5.237222008264700033E-14, -1.836970198721029589E-15, 15.00000000000000000 ) ) ;
#64 = CONICAL_SURFACE ( 'NONE', #141, 0.6499999999999990230, 0.5235987755982929315 ) ;
#65 = DIRECTION ( 'NONE',  ( -3.491481338843133355E-15, 1.224646799147353207E-16, -1.000000000000000000 ) ) ;
#66 = COORDINATED_UNIVERSAL_TIME_OFFSET ( 1, 0, .AHEAD. ) ;
#67 = AXIS2_PLACEMENT_3D ( 'NONE', #143, #238, #95 ) ;
#68 = CC_DESIGN_PERSON_AND_ORGANIZATION_ASSIGNMENT ( #254, #276, ( #171 ) ) ;
#69 = DIRECTION ( 'NONE',  ( -4.275831445896958607E-31, -1.000000000000000000, -1.224646799147353207E-16 ) ) ;
#70 = ORIENTED_EDGE ( 'NONE', *, *, #149, .F. ) ;
#71 = DIRECTION ( 'NONE',  ( -3.491481338843133355E-15, 1.224646799147353207E-16, -1.000000000000000000 ) ) ;
#72 = ORIENTED_EDGE ( 'NONE', *, *, #149, .T. ) ;
#73 = AXIS2_PLACEMENT_3D ( 'NONE', #181, #81, #55 ) ;
#74 = SECURITY_CLASSIFICATION ( '', '', #210 ) ;
#75 = VERTEX_POINT ( 'NONE', #250 ) ;
#76 = DIRECTION ( 'NONE',  ( -4.275831445896958607E-31, -1.000000000000000000, -1.224646799147353207E-16 ) ) ;
#77 = DIRECTION ( 'NONE',  ( -3.491481338843133355E-15, 1.224646799147353207E-16, -1.000000000000000000 ) ) ;
#78 = COORDINATED_UNIVERSAL_TIME_OFFSET ( 1, 0, .AHEAD. ) ;
#79 = DIRECTION ( 'NONE',  ( -3.491481338843133355E-15, 1.224646799147353207E-16, -1.000000000000000000 ) ) ;
#80 = DIRECTION ( 'NONE',  ( 1.000000000000000000, 0.0000000000000000000, 0.0000000000000000000 ) ) ;
#81 = DIRECTION ( 'NONE',  ( 3.491481338843133355E-15, -1.224646799147353207E-16, 1.000000000000000000 ) ) ;
#82 = DESIGN_CONTEXT ( 'detailed design', #194, 'design' ) ;
#83 = CYLINDRICAL_SURFACE ( 'NONE', #231, 1.500000000000000444 ) ;
#84 = CARTESIAN_POINT ( 'NONE',  ( 2.444036937190193349E-14, 5.586605190415406999E-33, 7.000000000000000000 ) ) ;
#85 = DIRECTION ( 'NONE',  ( 4.275831445896958607E-31, 1.000000000000000000, 1.224646799147353207E-16 ) ) ;
#86 = PERSON_AND_ORGANIZATION_ROLE ( 'creator' ) ;
#87 = DIRECTION ( 'NONE',  ( -3.491481338843133355E-15, 1.224646799147353207E-16, -1.000000000000000000 ) ) ;
#88 = CC_DESIGN_PERSON_AND_ORGANIZATION_ASSIGNMENT ( #38, #264, ( #118 ) ) ;
#89 = CIRCLE ( 'NONE', #56, 0.6499999999999990230 ) ;
#90 = VERTEX_POINT ( 'NONE', #220 ) ;
#91 = EDGE_LOOP ( 'NONE', ( #177 ) ) ;
#92 = EDGE_LOOP ( 'NONE', ( #216 ) ) ;
#93 = AXIS2_PLACEMENT_3D ( 'NONE', #84, #187, #17 ) ;
#94 = APPROVAL_PERSON_ORGANIZATION ( #291, #123, #293 ) ;
#95 = DIRECTION ( 'NONE',  ( 0.0000000000000000000, 1.000000000000000000, 0.0000000000000000000 ) ) ;
#96 = FACE_OUTER_BOUND ( 'NONE', #239, .T. ) ;
#97 = ORIENTED_EDGE ( 'NONE', *, *, #301, .F. ) ;
#98 = ADVANCED_FACE ( 'NONE', ( #172, #260 ), #279, .T. ) ;
#99 = DIRECTION ( 'NONE',  ( -3.491481338843133355E-15, 1.224646799147353207E-16, -1.000000000000000000 ) ) ;
#100 = APPROVAL_STATUS ( 'not_yet_approved' ) ;
#101 = FACE_OUTER_BOUND ( 'NONE', #92, .T. ) ;
#102 = APPROVAL_STATUS ( 'not_yet_approved' ) ;
#103 = FACE_OUTER_BOUND ( 'NONE', #221, .T. ) ;
#104 = CONICAL_SURFACE ( 'NONE', #288, 1.200000000000003286, 0.7853981633974453924 ) ;
#105 = CARTESIAN_POINT ( 'NONE',  ( 0.0000000000000000000, 0.0000000000000000000, 0.0000000000000000000 ) ) ;
#106 = EDGE_CURVE ( 'NONE', #259, #259, #295, .T. ) ;
#107 = CALENDAR_DATE ( 2021, 1, 12 ) ;
#108 = CARTESIAN_POINT ( 'NONE',  ( 0.0000000000000000000, 0.0000000000000000000, 0.0000000000000000000 ) ) ;
#109 = PERSON_AND_ORGANIZATION ( #120, #241 ) ;
#110 = CIRCLE ( 'NONE', #283, 0.6500000000000001332 ) ;
#111 = DIRECTION ( 'NONE',  ( 0.0000000000000000000, 1.000000000000000000, 0.0000000000000000000 ) ) ;
#112 = LOCAL_TIME ( 11, 40, 9.000000000000000000, #78 ) ;
#113 = EDGE_CURVE ( 'NONE', #255, #255, #240, .T. ) ;
#114 = EDGE_CURVE ( 'NONE', #235, #235, #89, .T. ) ;
#115 = CARTESIAN_POINT ( 'NONE',  ( 6.981414859920802045E-14, 1.499999999999995559, 19.99556687372707486 ) ) ;
#116 = CIRCLE ( 'NONE', #21, 1.500000000000003331 ) ;
#117 = EDGE_LOOP ( 'NONE', ( #25 ) ) ;
#118 = PRODUCT_DEFINITION ( 'UNKNOWN', '', #171, #82 ) ;
#119 = EDGE_LOOP ( 'NONE', ( #284 ) ) ;
#120 = PERSON ( 'UNSPECIFIED', 'UNSPECIFIED', 'UNSPECIFIED', ('UNSPECIFIED'), ('UNSPECIFIED'), ('UNSPECIFIED') ) ;
#121 = CARTESIAN_POINT ( 'NONE',  ( -1.284165659059360298E-31, 4.504246797615931504E-33, -3.677996627886475628E-17 ) ) ;
#122 = ORIENTED_EDGE ( 'NONE', *, *, #234, .F. ) ;
#123 = APPROVAL ( #100, 'UNSPECIFIED' ) ;
#124 = DIRECTION ( 'NONE',  ( 3.491481338843133355E-15, -1.224646799147353207E-16, 1.000000000000000000 ) ) ;
#125 = ADVANCED_FACE ( 'NONE', ( #131, #42 ), #60, .T. ) ;
#126 =( NAMED_UNIT ( * ) PLANE_ANGLE_UNIT ( ) SI_UNIT ( $, .RADIAN. ) );
#127 = CARTESIAN_POINT ( 'NONE',  ( 5.237222008264700033E-14, -1.734723475976807094E-15, 15.00000000000000000 ) ) ;
#128 = COORDINATED_UNIVERSAL_TIME_OFFSET ( 1, 0, .AHEAD. ) ;
#129 = DIRECTION ( 'NONE',  ( 4.275831445896958607E-31, 1.000000000000000000, 1.224646799147353207E-16 ) ) ;
#130 = UNCERTAINTY_MEASURE_WITH_UNIT (LENGTH_MEASURE( 1.000000000000000082E-05 ), #269, 'distance_accuracy_value', 'NONE');
#131 = FACE_OUTER_BOUND ( 'NONE', #265, .T. ) ;
#132 = AXIS2_PLACEMENT_3D ( 'NONE', #51, #6, #76 ) ;
#133 = PERSON_AND_ORGANIZATION ( #120, #241 ) ;
#134 = FACE_OUTER_BOUND ( 'NONE', #50, .T. ) ;
#135 = DATE_TIME_ROLE ( 'classification_date' ) ;
#136 = AXIS2_PLACEMENT_3D ( 'NONE', #127, #77, #129 ) ;
#137 = APPROVAL_PERSON_ORGANIZATION ( #15, #165, #289 ) ;
#138 = PERSON_AND_ORGANIZATION_ROLE ( 'classification_officer' ) ;
#139 = EDGE_LOOP ( 'NONE', ( #282 ) ) ;
#140 = ADVANCED_FACE ( 'NONE', ( #155 ), #185, .T. ) ;
#141 = AXIS2_PLACEMENT_3D ( 'NONE', #292, #99, #186 ) ;
#142 = APPROVAL_PERSON_ORGANIZATION ( #109, #228, #274 ) ;
#143 = CARTESIAN_POINT ( 'NONE',  ( 1.326762908760390423E-13, -4.653657836759941941E-15, 38.00000000000000000 ) ) ;
#144 = EDGE_LOOP ( 'NONE', ( #174 ) ) ;
#145 = EDGE_LOOP ( 'NONE', ( #213 ) ) ;
#146 = AXIS2_PLACEMENT_3D ( 'NONE', #47, #218, #8 ) ;
#147 = DIRECTION ( 'NONE',  ( 0.0000000000000000000, 0.0000000000000000000, 1.000000000000000000 ) ) ;
#148 = PLANE ( 'NONE',  #207 ) ;
#149 = EDGE_CURVE ( 'NONE', #193, #193, #27, .T. ) ;
#150 = DATE_TIME_ROLE ( 'creation_date' ) ;
#151 = ORIENTED_EDGE ( 'NONE', *, *, #106, .F. ) ;
#152 = DIRECTION ( 'NONE',  ( 0.0000000000000000000, 1.000000000000000000, 0.0000000000000000000 ) ) ;
#153 = AXIS2_PLACEMENT_3D ( 'NONE', #105, #79, #225 ) ;
#154 = CALENDAR_DATE ( 2021, 1, 12 ) ;
#155 = FACE_OUTER_BOUND ( 'NONE', #49, .T. ) ;
#156 = PRODUCT_DEFINITION_SHAPE ( 'NONE', 'NONE',  #118 ) ;
#157 = ADVANCED_FACE ( 'NONE', ( #134, #227 ), #83, .T. ) ;
#158 = CARTESIAN_POINT ( 'NONE',  ( 5.358479882634336420E-14, -1.879501735712543696E-15, 15.34729635533384773 ) ) ;
#159 = FACE_OUTER_BOUND ( 'NONE', #91, .T. ) ;
#160 = AXIS2_PLACEMENT_3D ( 'NONE', #285, #71, #175 ) ;
#161 = CARTESIAN_POINT ( 'NONE',  ( 1.326762908760390423E-13, 8.998558695971103225E-33, 38.00000000000000000 ) ) ;
#162 = ADVANCED_FACE ( 'NONE', ( #103, #299 ), #64, .T. ) ;
#163 = DATE_AND_TIME ( #278, #297 ) ;
#164 = CARTESIAN_POINT ( 'NONE',  ( 2.444036937190193349E-14, 0.7449999999999991074, 7.000000000000000000 ) ) ;
#165 = APPROVAL ( #102, 'UNSPECIFIED' ) ;
#166 =( GEOMETRIC_REPRESENTATION_CONTEXT ( 3 ) GLOBAL_UNCERTAINTY_ASSIGNED_CONTEXT ( ( #130 ) ) GLOBAL_UNIT_ASSIGNED_CONTEXT ( ( #269, #126, #202 ) ) REPRESENTATION_CONTEXT ( 'NONE', 'WORKASPACE' ) );
#167 = DATE_AND_TIME ( #107, #263 ) ;
#168 = CARTESIAN_POINT ( 'NONE',  ( 1.316288464743861212E-13, -4.616918432785521081E-15, 37.69999999999999574 ) ) ;
#169 = VERTEX_POINT ( 'NONE', #46 ) ;
#170 = AXIS2_PLACEMENT_3D ( 'NONE', #62, #249, #298 ) ;
#171 = PRODUCT_DEFINITION_FORMATION_WITH_SPECIFIED_SOURCE ( 'ANY', '', #43, .NOT_KNOWN. ) ;
#172 = FACE_BOUND ( 'NONE', #4, .T. ) ;
#173 = EDGE_CURVE ( 'NONE', #169, #169, #302, .T. ) ;
#174 = ORIENTED_EDGE ( 'NONE', *, *, #113, .T. ) ;
#175 = DIRECTION ( 'NONE',  ( 0.0000000000000000000, 1.000000000000000000, 0.0000000000000000000 ) ) ;
#176 = APPLICATION_PROTOCOL_DEFINITION ( 'international standard', 'config_control_design', 1994, #194 ) ;
#177 = ORIENTED_EDGE ( 'NONE', *, *, #173, .F. ) ;
#178 = CC_DESIGN_SECURITY_CLASSIFICATION ( #74, ( #171 ) ) ;
#179 = COORDINATED_UNIVERSAL_TIME_OFFSET ( 1, 0, .AHEAD. ) ;
#180 = CARTESIAN_POINT ( 'NONE',  ( 2.444036937190193349E-14, -8.572527594031473190E-16, 7.000000000000000000 ) ) ;
#181 = CARTESIAN_POINT ( 'NONE',  ( 6.981414859920802045E-14, -2.448750696904671204E-15, 19.99556687372707486 ) ) ;
#182 = DIRECTION ( 'NONE',  ( -3.491481338843133355E-15, 1.224646799147353207E-16, -1.000000000000000000 ) ) ;
#183 = CIRCLE ( 'NONE', #253, 0.6803844939755806509 ) ;
#184 = ADVANCED_FACE ( 'NONE', ( #209 ), #34, .F. ) ;
#185 = PLANE ( 'NONE',  #93 ) ;
#186 = DIRECTION ( 'NONE',  ( 0.0000000000000000000, 1.000000000000000000, 0.0000000000000000000 ) ) ;
#187 = DIRECTION ( 'NONE',  ( 3.491481338843133355E-15, -1.224646799147353207E-16, 1.000000000000000000 ) ) ;
#188 = CIRCLE ( 'NONE', #170, 1.499999999999997780 ) ;
#189 = AXIS2_PLACEMENT_3D ( 'NONE', #223, #147, #80 ) ;
#190 = DIRECTION ( 'NONE',  ( -3.491481338843133355E-15, 1.224646799147353207E-16, -1.000000000000000000 ) ) ;
#191 = CC_DESIGN_DATE_AND_TIME_ASSIGNMENT ( #226, #150, ( #118 ) ) ;
#192 = LOCAL_TIME ( 11, 40, 9.000000000000000000, #179 ) ;
#193 = VERTEX_POINT ( 'NONE', #281 ) ;
#194 = APPLICATION_CONTEXT ( 'configuration controlled 3d designs of mechanical parts and assemblies' ) ;
#195 = EDGE_LOOP ( 'NONE', ( #28 ) ) ;
#196 = EDGE_LOOP ( 'NONE', ( #72 ) ) ;
#197 = DIRECTION ( 'NONE',  ( 0.0000000000000000000, 1.000000000000000000, 0.0000000000000000000 ) ) ;
#198 = EDGE_CURVE ( 'NONE', #23, #23, #188, .T. ) ;
#199 = FACE_BOUND ( 'NONE', #139, .T. ) ;
#200 = CALENDAR_DATE ( 2021, 1, 12 ) ;
#201 = DIRECTION ( 'NONE',  ( 0.0000000000000000000, 1.000000000000000000, 0.0000000000000000000 ) ) ;
#202 =( NAMED_UNIT ( * ) SI_UNIT ( $, .STERADIAN. ) SOLID_ANGLE_UNIT ( ) );
#203 = DIRECTION ( 'NONE',  ( 5.170281729898625771E-31, 1.000000000000000000, 1.455304929510745904E-16 ) ) ;
#204 = APPLICATION_PROTOCOL_DEFINITION ( 'international standard', 'config_control_design', 1994, #303 ) ;
#205 = DIRECTION ( 'NONE',  ( 4.275831445896957731E-31, 1.000000000000000000, 1.224646799147353207E-16 ) ) ;
#206 = FACE_BOUND ( 'NONE', #243, .T. ) ;
#207 = AXIS2_PLACEMENT_3D ( 'NONE', #121, #124, #69 ) ;
#208 = MECHANICAL_CONTEXT ( 'NONE', #303, 'mechanical' ) ;
#209 = FACE_OUTER_BOUND ( 'NONE', #5, .T. ) ;
#210 = SECURITY_CLASSIFICATION_LEVEL ( 'unclassified' ) ;
#211 = CARTESIAN_POINT ( 'NONE',  ( 1.326762908760390423E-13, 1.199999999999998845, 38.00000000000000000 ) ) ;
#212 = CONICAL_SURFACE ( 'NONE', #73, 1.499999999999997780, 0.1745329251994262587 ) ;
#213 = ORIENTED_EDGE ( 'NONE', *, *, #173, .T. ) ;
#214 = ADVANCED_FACE ( 'NONE', ( #101, #39 ), #35, .F. ) ;
#215 = DIRECTION ( 'NONE',  ( -3.491481338843133355E-15, 1.224646799147353207E-16, -1.000000000000000000 ) ) ;
#216 = ORIENTED_EDGE ( 'NONE', *, *, #236, .F. ) ;
#217 = CC_DESIGN_APPROVAL ( #228, ( #74 ) ) ;
#218 = DIRECTION ( 'NONE',  ( 3.491481338843133355E-15, -1.224646799147353207E-16, 1.000000000000000000 ) ) ;
#219 = ORIENTED_EDGE ( 'NONE', *, *, #20, .F. ) ;
#220 = CARTESIAN_POINT ( 'NONE',  ( 5.358479882634336420E-14, 0.6803844939755787635, 15.34729635533384773 ) ) ;
#221 = EDGE_LOOP ( 'NONE', ( #219 ) ) ;
#222 = CC_DESIGN_APPROVAL ( #165, ( #171 ) ) ;
#223 = CARTESIAN_POINT ( 'NONE',  ( 0.0000000000000000000, 0.0000000000000000000, 0.0000000000000000000 ) ) ;
#224 = ADVANCED_FACE ( 'NONE', ( #206, #296 ), #212, .T. ) ;
#225 = DIRECTION ( 'NONE',  ( 4.275831445896958607E-31, 1.000000000000000000, 1.224646799147353207E-16 ) ) ;
#226 = DATE_AND_TIME ( #200, #18 ) ;
#227 = FACE_OUTER_BOUND ( 'NONE', #242, .T. ) ;
#228 = APPROVAL ( #233, 'UNSPECIFIED' ) ;
#229 = DIRECTION ( 'NONE',  ( -3.491481338843133355E-15, 1.224646799147353207E-16, -1.000000000000000000 ) ) ;
#230 = CARTESIAN_POINT ( 'NONE',  ( 2.501487456379466562E-14, 0.6499999999999981348, 7.164544826719047244 ) ) ;
#231 = AXIS2_PLACEMENT_3D ( 'NONE', #273, #182, #14 ) ;
#232 = CLOSED_SHELL ( 'NONE', ( #29, #162, #125, #214, #224, #157, #45, #184 ) ) ;
#233 = APPROVAL_STATUS ( 'not_yet_approved' ) ;
#234 = EDGE_CURVE ( 'NONE', #90, #90, #183, .T. ) ;
#235 = VERTEX_POINT ( 'NONE', #230 ) ;
#236 = EDGE_CURVE ( 'NONE', #58, #58, #110, .T. ) ;
#237 = AXIS2_PLACEMENT_3D ( 'NONE', #108, #87, #85 ) ;
#238 = DIRECTION ( 'NONE',  ( -3.491481338843133355E-15, 1.224646799147353207E-16, -1.000000000000000000 ) ) ;
#239 = EDGE_LOOP ( 'NONE', ( #97 ) ) ;
#240 = CIRCLE ( 'NONE', #160, 0.7449999999999999956 ) ;
#241 = ORGANIZATION ( 'UNSPECIFIED', 'UNSPECIFIED', '' ) ;
#242 = EDGE_LOOP ( 'NONE', ( #7 ) ) ;
#243 = EDGE_LOOP ( 'NONE', ( #122 ) ) ;
#244 = ADVANCED_BREP_SHAPE_REPRESENTATION ( '200782', ( #54, #257, #189 ), #166 ) ;
#245 = APPROVAL_DATE_TIME ( #52, #165 ) ;
#246 = ORIENTED_EDGE ( 'NONE', *, *, #113, .F. ) ;
#247 = DIRECTION ( 'NONE',  ( 4.275831445896958607E-31, 1.000000000000000000, 1.224646799147353207E-16 ) ) ;
#248 = APPROVAL_DATE_TIME ( #30, #123 ) ;
#249 = DIRECTION ( 'NONE',  ( -3.491481338843133355E-15, 1.224646799147353207E-16, -1.000000000000000000 ) ) ;
#250 = CARTESIAN_POINT ( 'NONE',  ( 1.316288464743861212E-13, 1.499999999999998668, 37.69999999999999574 ) ) ;
#251 = DIRECTION ( 'NONE',  ( -3.491481338843133355E-15, 1.224646799147353207E-16, -1.000000000000000000 ) ) ;
#252 = CYLINDRICAL_SURFACE ( 'NONE', #237, 0.7449999999999995515 ) ;
#253 = AXIS2_PLACEMENT_3D ( 'NONE', #158, #270, #40 ) ;
#254 = PERSON_AND_ORGANIZATION ( #120, #241 ) ;
#255 = VERTEX_POINT ( 'NONE', #3 ) ;
#256 = ORIENTED_EDGE ( 'NONE', *, *, #114, .F. ) ;
#257 = MANIFOLD_SOLID_BREP ( 'Corps-Déplacer/Copier1[2]', #59 ) ;
#258 = ORIENTED_EDGE ( 'NONE', *, *, #198, .F. ) ;
#259 = VERTEX_POINT ( 'NONE', #211 ) ;
#260 = FACE_OUTER_BOUND ( 'NONE', #145, .T. ) ;
#261 = ORIENTED_EDGE ( 'NONE', *, *, #236, .T. ) ;
#262 = CARTESIAN_POINT ( 'NONE',  ( 2.501487456379466562E-14, -8.774036889389210885E-16, 7.164544826719047244 ) ) ;
#263 = LOCAL_TIME ( 11, 40, 9.000000000000000000, #66 ) ;
#264 = PERSON_AND_ORGANIZATION_ROLE ( 'creator' ) ;
#265 = EDGE_LOOP ( 'NONE', ( #256 ) ) ;
#266 = CALENDAR_DATE ( 2021, 1, 12 ) ;
#267 = ORIENTED_EDGE ( 'NONE', *, *, #114, .T. ) ;
#268 = CC_DESIGN_PERSON_AND_ORGANIZATION_ASSIGNMENT ( #61, #13, ( #43 ) ) ;
#269 =( LENGTH_UNIT ( ) NAMED_UNIT ( * ) SI_UNIT ( .MILLI., .METRE. ) );
#270 = DIRECTION ( 'NONE',  ( -3.491481338843133355E-15, 1.224646799147353207E-16, -1.000000000000000000 ) ) ;
#271 = CARTESIAN_POINT ( 'NONE',  ( 5.237222008264700033E-14, 0.6499999999999982458, 15.00000000000000000 ) ) ;
#272 = AXIS2_PLACEMENT_3D ( 'NONE', #294, #65, #203 ) ;
#273 = CARTESIAN_POINT ( 'NONE',  ( 0.0000000000000000000, 0.0000000000000000000, 0.0000000000000000000 ) ) ;
#274 = APPROVAL_ROLE ( '' ) ;
#275 = DIRECTION ( 'NONE',  ( -3.491481338843133355E-15, 1.224646799147353207E-16, -1.000000000000000000 ) ) ;
#276 = PERSON_AND_ORGANIZATION_ROLE ( 'design_supplier' ) ;
#277 = VERTEX_POINT ( 'NONE', #164 ) ;
#278 = CALENDAR_DATE ( 2021, 1, 12 ) ;
#279 = CONICAL_SURFACE ( 'NONE', #146, 0.7449999999999991074, 0.5235987755982927094 ) ;
#280 = ADVANCED_FACE ( 'NONE', ( #159, #19 ), #252, .T. ) ;
#281 = CARTESIAN_POINT ( 'NONE',  ( -4.276423536147513034E-47, 0.6006624327025947840, 0.0000000000000000000 ) ) ;
#282 = ORIENTED_EDGE ( 'NONE', *, *, #106, .T. ) ;
#283 = AXIS2_PLACEMENT_3D ( 'NONE', #63, #229, #152 ) ;
#284 = ORIENTED_EDGE ( 'NONE', *, *, #198, .T. ) ;
#285 = CARTESIAN_POINT ( 'NONE',  ( 2.444036937190193349E-14, -8.572527594031473190E-16, 7.000000000000000000 ) ) ;
#286 = CC_DESIGN_PERSON_AND_ORGANIZATION_ASSIGNMENT ( #33, #86, ( #171 ) ) ;
#287 = CARTESIAN_POINT ( 'NONE',  ( 1.326762908760390423E-13, -4.653657836759941941E-15, 38.00000000000000000 ) ) ;
#288 = AXIS2_PLACEMENT_3D ( 'NONE', #287, #26, #197 ) ;
#289 = APPROVAL_ROLE ( '' ) ;
#290 = FACE_OUTER_BOUND ( 'NONE', #117, .T. ) ;
#291 = PERSON_AND_ORGANIZATION ( #120, #241 ) ;
#292 = CARTESIAN_POINT ( 'NONE',  ( 2.501487456379466562E-14, -8.774036889389210885E-16, 7.164544826719047244 ) ) ;
#293 = APPROVAL_ROLE ( '' ) ;
#294 = CARTESIAN_POINT ( 'NONE',  ( 8.728703347107831416E-16, -3.061616997868382402E-17, 0.2499999999999999445 ) ) ;
#295 = CIRCLE ( 'NONE', #67, 1.200000000000003286 ) ;
#296 = FACE_OUTER_BOUND ( 'NONE', #119, .T. ) ;
#297 = LOCAL_TIME ( 11, 40, 9.000000000000000000, #22 ) ;
#298 = DIRECTION ( 'NONE',  ( 0.0000000000000000000, 1.000000000000000000, 0.0000000000000000000 ) ) ;
#299 = FACE_BOUND ( 'NONE', #53, .T. ) ;
#300 = APPROVAL_DATE_TIME ( #167, #228 ) ;
#301 = EDGE_CURVE ( 'NONE', #75, #75, #116, .T. ) ;
#302 = CIRCLE ( 'NONE', #272, 0.7449999999999991074 ) ;
#303 = APPLICATION_CONTEXT ( 'configuration controlled 3d designs of mechanical parts and assemblies' ) ;
ENDSEC;
END-ISO-10303-21;
