ISO-10303-21;
HEADER;
FILE_DESCRIPTION (( 'STEP AP203' ),
    '1' );
FILE_NAME ('200781.step',
    '2021-12-01T10:40:08',
    ( '' ),
    ( '' ),
    'SwSTEP 2.0',
    'SolidWorks 2019',
    '' );
FILE_SCHEMA (( 'CONFIG_CONTROL_DESIGN' ));
ENDSEC;

DATA;
#1 = VERTEX_POINT ( 'NONE', #44 ) ;
#2 = AXIS2_PLACEMENT_3D ( 'NONE', #204, #133, #20 ) ;
#3 = AXIS2_PLACEMENT_3D ( 'NONE', #84, #130, #251 ) ;
#4 = LOCAL_TIME ( 11, 40, 8.000000000000000000, #51 ) ;
#5 = AXIS2_PLACEMENT_3D ( 'NONE', #19, #88, #38 ) ;
#6 = DATE_AND_TIME ( #123, #147 ) ;
#7 = DIRECTION ( 'NONE',  ( -3.491481338843133355E-15, 1.224646799147353207E-16, -1.000000000000000000 ) ) ;
#8 = CC_DESIGN_APPROVAL ( #182, ( #223 ) ) ;
#9 = ORIENTED_EDGE ( 'NONE', *, *, #125, .F. ) ;
#10 = ADVANCED_BREP_SHAPE_REPRESENTATION ( '200781', ( #252, #50, #85 ), #191 ) ;
#11 = PERSON_AND_ORGANIZATION ( #144, #290 ) ;
#12 = ORIENTED_EDGE ( 'NONE', *, *, #286, .T. ) ;
#13 = EDGE_CURVE ( 'NONE', #206, #206, #183, .T. ) ;
#14 = ORIENTED_EDGE ( 'NONE', *, *, #179, .F. ) ;
#15 = APPLICATION_CONTEXT ( 'configuration controlled 3d designs of mechanical parts and assemblies' ) ;
#16 = FACE_OUTER_BOUND ( 'NONE', #287, .T. ) ;
#17 = DIRECTION ( 'NONE',  ( -4.275831445896958607E-31, -1.000000000000000000, -1.224646799147353207E-16 ) ) ;
#18 = LOCAL_TIME ( 11, 40, 8.000000000000000000, #97 ) ;
#19 = CARTESIAN_POINT ( 'NONE',  ( 6.981414859920802045E-14, -2.448750696904671204E-15, 19.99556687372707486 ) ) ;
#20 = DIRECTION ( 'NONE',  ( 4.275831445896958607E-31, 1.000000000000000000, 1.224646799147352961E-16 ) ) ;
#21 = DIRECTION ( 'NONE',  ( -4.275831445896958607E-31, -1.000000000000000000, -1.224646799147353207E-16 ) ) ;
#22 = CARTESIAN_POINT ( 'NONE',  ( 2.444036937190193349E-14, 0.7399999999999992140, 7.000000000000000000 ) ) ;
#23 = AXIS2_PLACEMENT_3D ( 'NONE', #30, #196, #194 ) ;
#24 = APPROVAL_PERSON_ORGANIZATION ( #11, #182, #33 ) ;
#25 = CARTESIAN_POINT ( 'NONE',  ( 1.892735826383161356E-31, 0.5956624327025947796, 5.421010862427522170E-17 ) ) ;
#26 = PERSON_AND_ORGANIZATION_ROLE ( 'design_owner' ) ;
#27 = ORIENTED_EDGE ( 'NONE', *, *, #132, .F. ) ;
#28 = PRODUCT_DEFINITION_FORMATION_WITH_SPECIFIED_SOURCE ( 'ANY', '', #163, .NOT_KNOWN. ) ;
#29 = CARTESIAN_POINT ( 'NONE',  ( 0.0000000000000000000, 0.0000000000000000000, 0.0000000000000000000 ) ) ;
#30 = CARTESIAN_POINT ( 'NONE',  ( 5.237222008264700033E-14, -1.836970198721029589E-15, 15.00000000000000000 ) ) ;
#31 = DATE_AND_TIME ( #232, #4 ) ;
#32 = CYLINDRICAL_SURFACE ( 'NONE', #48, 1.500000000000000444 ) ;
#33 = APPROVAL_ROLE ( '' ) ;
#34 = AXIS2_PLACEMENT_3D ( 'NONE', #253, #64, #221 ) ;
#35 = EDGE_LOOP ( 'NONE', ( #153 ) ) ;
#36 = CARTESIAN_POINT ( 'NONE',  ( 6.981414859920802045E-14, -2.448750696904671204E-15, 19.99556687372707486 ) ) ;
#37 = PLANE ( 'NONE',  #3 ) ;
#38 = DIRECTION ( 'NONE',  ( 0.0000000000000000000, -1.000000000000000000, 0.0000000000000000000 ) ) ;
#39 = CIRCLE ( 'NONE', #160, 0.6499999999999992450 ) ;
#40 = DIRECTION ( 'NONE',  ( 3.491481338843133355E-15, -1.224646799147353207E-16, 1.000000000000000000 ) ) ;
#41 = EDGE_CURVE ( 'NONE', #255, #255, #297, .T. ) ;
#42 = APPLICATION_CONTEXT ( 'configuration controlled 3d designs of mechanical parts and assemblies' ) ;
#43 = VERTEX_POINT ( 'NONE', #231 ) ;
#44 = CARTESIAN_POINT ( 'NONE',  ( 5.237222008264700033E-14, 0.6499999999999982458, 15.00000000000000000 ) ) ;
#45 = DIRECTION ( 'NONE',  ( -3.491481338843133355E-15, 1.224646799147353207E-16, -1.000000000000000000 ) ) ;
#46 = VERTEX_POINT ( 'NONE', #207 ) ;
#47 = DESIGN_CONTEXT ( 'detailed design', #42, 'design' ) ;
#48 = AXIS2_PLACEMENT_3D ( 'NONE', #266, #245, #292 ) ;
#49 = APPROVAL ( #166, 'UNSPECIFIED' ) ;
#50 = MANIFOLD_SOLID_BREP ( 'Corps-Déplacer/Copier1[2]', #112 ) ;
#51 = COORDINATED_UNIVERSAL_TIME_OFFSET ( 1, 0, .AHEAD. ) ;
#52 = ORIENTED_EDGE ( 'NONE', *, *, #95, .F. ) ;
#53 = APPROVAL_ROLE ( '' ) ;
#54 = ORIENTED_EDGE ( 'NONE', *, *, #286, .F. ) ;
#55 = CC_DESIGN_APPROVAL ( #295, ( #256 ) ) ;
#56 = CALENDAR_DATE ( 2021, 1, 12 ) ;
#57 = DIRECTION ( 'NONE',  ( 3.491481338843133355E-15, -1.224646799147353207E-16, 1.000000000000000000 ) ) ;
#58 = SECURITY_CLASSIFICATION_LEVEL ( 'unclassified' ) ;
#59 = EDGE_LOOP ( 'NONE', ( #294 ) ) ;
#60 = CIRCLE ( 'NONE', #94, 0.7400000000000001021 ) ;
#61 = FACE_OUTER_BOUND ( 'NONE', #219, .T. ) ;
#62 = FACE_OUTER_BOUND ( 'NONE', #165, .T. ) ;
#63 = FACE_OUTER_BOUND ( 'NONE', #102, .T. ) ;
#64 = DIRECTION ( 'NONE',  ( -3.491481338843133355E-15, 1.224646799147353207E-16, -1.000000000000000000 ) ) ;
#65 = AXIS2_PLACEMENT_3D ( 'NONE', #80, #148, #173 ) ;
#66 = APPROVAL_PERSON_ORGANIZATION ( #121, #49, #197 ) ;
#67 = FACE_OUTER_BOUND ( 'NONE', #263, .T. ) ;
#68 = DIRECTION ( 'NONE',  ( 4.275831445896958607E-31, 1.000000000000000000, 1.224646799147353207E-16 ) ) ;
#69 =( LENGTH_UNIT ( ) NAMED_UNIT ( * ) SI_UNIT ( .MILLI., .METRE. ) );
#70 = VERTEX_POINT ( 'NONE', #93 ) ;
#71 =( NAMED_UNIT ( * ) PLANE_ANGLE_UNIT ( ) SI_UNIT ( $, .RADIAN. ) );
#72 = ADVANCED_FACE ( 'NONE', ( #105 ), #167, .F. ) ;
#73 = ORIENTED_EDGE ( 'NONE', *, *, #95, .T. ) ;
#74 = PRODUCT_RELATED_PRODUCT_CATEGORY ( 'detail', '', ( #163 ) ) ;
#75 = ORIENTED_EDGE ( 'NONE', *, *, #179, .T. ) ;
#76 = FACE_OUTER_BOUND ( 'NONE', #193, .T. ) ;
#77 = CIRCLE ( 'NONE', #65, 1.200000000000003286 ) ;
#78 = DIRECTION ( 'NONE',  ( 5.205216065911453956E-31, 1.000000000000000000, 1.465138070926358949E-16 ) ) ;
#79 = DATE_AND_TIME ( #170, #244 ) ;
#80 = CARTESIAN_POINT ( 'NONE',  ( 1.326762908760390423E-13, -4.653657836759941941E-15, 38.00000000000000000 ) ) ;
#81 = PERSON_AND_ORGANIZATION_ROLE ( 'creator' ) ;
#82 = ORIENTED_EDGE ( 'NONE', *, *, #100, .F. ) ;
#83 = AXIS2_PLACEMENT_3D ( 'NONE', #275, #136, #181 ) ;
#84 = CARTESIAN_POINT ( 'NONE',  ( 1.326762908760390423E-13, 8.998558695971103225E-33, 38.00000000000000000 ) ) ;
#85 = AXIS2_PLACEMENT_3D ( 'NONE', #29, #141, #262 ) ;
#86 = DIRECTION ( 'NONE',  ( -3.491481338843133355E-15, 1.224646799147353207E-16, -1.000000000000000000 ) ) ;
#87 = UNCERTAINTY_MEASURE_WITH_UNIT (LENGTH_MEASURE( 1.000000000000000082E-05 ), #69, 'distance_accuracy_value', 'NONE');
#88 = DIRECTION ( 'NONE',  ( 3.491481338843133355E-15, -1.224646799147353207E-16, 1.000000000000000000 ) ) ;
#89 = FACE_OUTER_BOUND ( 'NONE', #285, .T. ) ;
#90 = AXIS2_PLACEMENT_3D ( 'NONE', #120, #57, #211 ) ;
#91 = CC_DESIGN_PERSON_AND_ORGANIZATION_ASSIGNMENT ( #208, #152, ( #223 ) ) ;
#92 = CYLINDRICAL_SURFACE ( 'NONE', #227, 0.6499999999999996891 ) ;
#93 = CARTESIAN_POINT ( 'NONE',  ( 2.498463744843188742E-14, 0.6499999999999983569, 7.155884572681202371 ) ) ;
#94 = AXIS2_PLACEMENT_3D ( 'NONE', #271, #7, #239 ) ;
#95 = EDGE_CURVE ( 'NONE', #46, #46, #60, .T. ) ;
#96 = ORIENTED_EDGE ( 'NONE', *, *, #13, .T. ) ;
#97 = COORDINATED_UNIVERSAL_TIME_OFFSET ( 1, 0, .AHEAD. ) ;
#98 = ORIENTED_EDGE ( 'NONE', *, *, #13, .F. ) ;
#99 = CARTESIAN_POINT ( 'NONE',  ( 8.728703347107829444E-16, -3.061616997868381785E-17, 0.2499999999999998890 ) ) ;
#100 = EDGE_CURVE ( 'NONE', #1, #1, #175, .T. ) ;
#101 = PERSON_AND_ORGANIZATION_ROLE ( 'design_supplier' ) ;
#102 = EDGE_LOOP ( 'NONE', ( #234 ) ) ;
#103 = TOROIDAL_SURFACE ( 'NONE', #34, 2.649999999999999911, 2.000000000000000444 ) ;
#104 = CC_DESIGN_DATE_AND_TIME_ASSIGNMENT ( #79, #238, ( #256 ) ) ;
#105 = FACE_OUTER_BOUND ( 'NONE', #241, .T. ) ;
#106 = EDGE_LOOP ( 'NONE', ( #195 ) ) ;
#107 = FACE_OUTER_BOUND ( 'NONE', #164, .T. ) ;
#108 = CARTESIAN_POINT ( 'NONE',  ( 0.0000000000000000000, 0.0000000000000000000, 0.0000000000000000000 ) ) ;
#109 = PLANE ( 'NONE',  #176 ) ;
#110 = CYLINDRICAL_SURFACE ( 'NONE', #248, 0.7399999999999996581 ) ;
#111 = CARTESIAN_POINT ( 'NONE',  ( 2.498463744843188742E-14, -8.763431137001960443E-16, 7.155884572681202371 ) ) ;
#112 = CLOSED_SHELL ( 'NONE', ( #72, #169, #142, #228 ) ) ;
#113 = PRODUCT_DEFINITION_SHAPE ( 'NONE', 'NONE',  #256 ) ;
#114 = VERTEX_POINT ( 'NONE', #283 ) ;
#115 = ADVANCED_FACE ( 'NONE', ( #76, #61 ), #32, .T. ) ;
#116 = CC_DESIGN_APPROVAL ( #49, ( #28 ) ) ;
#117 =( NAMED_UNIT ( * ) SI_UNIT ( $, .STERADIAN. ) SOLID_ANGLE_UNIT ( ) );
#118 = APPROVAL_DATE_TIME ( #31, #182 ) ;
#119 = AXIS2_PLACEMENT_3D ( 'NONE', #134, #246, #161 ) ;
#120 = CARTESIAN_POINT ( 'NONE',  ( -3.271081672530369892E-32, 1.147341002641935299E-33, -9.368750266940304728E-18 ) ) ;
#121 = PERSON_AND_ORGANIZATION ( #144, #290 ) ;
#122 = DIRECTION ( 'NONE',  ( 0.0000000000000000000, 1.000000000000000000, 0.0000000000000000000 ) ) ;
#123 = CALENDAR_DATE ( 2021, 1, 12 ) ;
#124 = EDGE_LOOP ( 'NONE', ( #198 ) ) ;
#125 = EDGE_CURVE ( 'NONE', #43, #43, #77, .T. ) ;
#126 = APPROVAL_STATUS ( 'not_yet_approved' ) ;
#127 = EDGE_LOOP ( 'NONE', ( #14 ) ) ;
#128 = LOCAL_TIME ( 11, 40, 8.000000000000000000, #240 ) ;
#129 = DIRECTION ( 'NONE',  ( 0.0000000000000000000, 1.000000000000000000, 0.0000000000000000000 ) ) ;
#130 = DIRECTION ( 'NONE',  ( -3.491481338843133355E-15, 1.224646799147353207E-16, -1.000000000000000000 ) ) ;
#131 = AXIS2_PLACEMENT_3D ( 'NONE', #36, #210, #300 ) ;
#132 = EDGE_CURVE ( 'NONE', #278, #278, #265, .T. ) ;
#133 = DIRECTION ( 'NONE',  ( -3.491481338843133355E-15, 1.224646799147353207E-16, -1.000000000000000000 ) ) ;
#134 = CARTESIAN_POINT ( 'NONE',  ( 5.358479882634336420E-14, -1.879501735712543696E-15, 15.34729635533384773 ) ) ;
#135 = CC_DESIGN_PERSON_AND_ORGANIZATION_ASSIGNMENT ( #172, #101, ( #28 ) ) ;
#136 = DIRECTION ( 'NONE',  ( 3.491481338843133355E-15, -1.224646799147353207E-16, 1.000000000000000000 ) ) ;
#137 = VERTEX_POINT ( 'NONE', #189 ) ;
#138 = CIRCLE ( 'NONE', #279, 1.500000000000003331 ) ;
#139 = CARTESIAN_POINT ( 'NONE',  ( 6.981414859920802045E-14, 1.499999999999995559, 19.99556687372707486 ) ) ;
#140 = AXIS2_PLACEMENT_3D ( 'NONE', #111, #274, #129 ) ;
#141 = DIRECTION ( 'NONE',  ( 0.0000000000000000000, 0.0000000000000000000, 1.000000000000000000 ) ) ;
#142 = ADVANCED_FACE ( 'NONE', ( #201, #155 ), #110, .T. ) ;
#143 = PERSON_AND_ORGANIZATION ( #144, #290 ) ;
#144 = PERSON ( 'UNSPECIFIED', 'UNSPECIFIED', 'UNSPECIFIED', ('UNSPECIFIED'), ('UNSPECIFIED'), ('UNSPECIFIED') ) ;
#145 = EDGE_LOOP ( 'NONE', ( #12 ) ) ;
#146 = MECHANICAL_CONTEXT ( 'NONE', #15, 'mechanical' ) ;
#147 = LOCAL_TIME ( 11, 40, 8.000000000000000000, #233 ) ;
#148 = DIRECTION ( 'NONE',  ( -3.491481338843133355E-15, 1.224646799147353207E-16, -1.000000000000000000 ) ) ;
#149 = PERSON_AND_ORGANIZATION ( #144, #290 ) ;
#150 = ADVANCED_FACE ( 'NONE', ( #273, #89 ), #302, .T. ) ;
#151 = EDGE_LOOP ( 'NONE', ( #96 ) ) ;
#152 = PERSON_AND_ORGANIZATION_ROLE ( 'classification_officer' ) ;
#153 = ORIENTED_EDGE ( 'NONE', *, *, #41, .T. ) ;
#154 = EDGE_LOOP ( 'NONE', ( #73 ) ) ;
#155 = FACE_OUTER_BOUND ( 'NONE', #151, .T. ) ;
#156 = ADVANCED_FACE ( 'NONE', ( #200, #16 ), #103, .F. ) ;
#157 = CARTESIAN_POINT ( 'NONE',  ( 0.0000000000000000000, 0.0000000000000000000, 0.0000000000000000000 ) ) ;
#158 = AXIS2_PLACEMENT_3D ( 'NONE', #99, #215, #78 ) ;
#159 = DIRECTION ( 'NONE',  ( 3.491481338843133355E-15, -1.224646799147353207E-16, 1.000000000000000000 ) ) ;
#160 = AXIS2_PLACEMENT_3D ( 'NONE', #298, #86, #180 ) ;
#161 = DIRECTION ( 'NONE',  ( 0.0000000000000000000, 1.000000000000000000, 0.0000000000000000000 ) ) ;
#162 = CARTESIAN_POINT ( 'NONE',  ( 1.326762908760390423E-13, -4.653657836759941941E-15, 38.00000000000000000 ) ) ;
#163 = PRODUCT ( '200781', '200781', '', ( #146 ) ) ;
#164 = EDGE_LOOP ( 'NONE', ( #9 ) ) ;
#165 = EDGE_LOOP ( 'NONE', ( #98 ) ) ;
#166 = APPROVAL_STATUS ( 'not_yet_approved' ) ;
#167 = PLANE ( 'NONE',  #90 ) ;
#168 = AXIS2_PLACEMENT_3D ( 'NONE', #226, #40, #21 ) ;
#169 = ADVANCED_FACE ( 'NONE', ( #247, #276 ), #209, .T. ) ;
#170 = CALENDAR_DATE ( 2021, 1, 12 ) ;
#171 = ORIENTED_EDGE ( 'NONE', *, *, #203, .F. ) ;
#172 = PERSON_AND_ORGANIZATION ( #144, #290 ) ;
#173 = DIRECTION ( 'NONE',  ( 0.0000000000000000000, 1.000000000000000000, 0.0000000000000000000 ) ) ;
#174 = EDGE_LOOP ( 'NONE', ( #171 ) ) ;
#175 = CIRCLE ( 'NONE', #23, 0.6500000000000001332 ) ;
#176 = AXIS2_PLACEMENT_3D ( 'NONE', #205, #159, #17 ) ;
#177 = FACE_OUTER_BOUND ( 'NONE', #213, .T. ) ;
#178 = CC_DESIGN_SECURITY_CLASSIFICATION ( #223, ( #28 ) ) ;
#179 = EDGE_CURVE ( 'NONE', #257, #257, #254, .T. ) ;
#180 = DIRECTION ( 'NONE',  ( 0.0000000000000000000, 1.000000000000000000, 0.0000000000000000000 ) ) ;
#181 = DIRECTION ( 'NONE',  ( -5.205216065911453956E-31, -1.000000000000000000, -1.465138070926358949E-16 ) ) ;
#182 = APPROVAL ( #192, 'UNSPECIFIED' ) ;
#183 = CIRCLE ( 'NONE', #282, 0.7400000000000001021 ) ;
#184 = ADVANCED_FACE ( 'NONE', ( #301 ), #185, .F. ) ;
#185 = PLANE ( 'NONE',  #168 ) ;
#186 = DIRECTION ( 'NONE',  ( 4.275831445896958607E-31, 1.000000000000000000, 1.224646799147353207E-16 ) ) ;
#187 = CC_DESIGN_PERSON_AND_ORGANIZATION_ASSIGNMENT ( #143, #81, ( #28 ) ) ;
#188 = DIRECTION ( 'NONE',  ( 0.0000000000000000000, 1.000000000000000000, 0.0000000000000000000 ) ) ;
#189 = CARTESIAN_POINT ( 'NONE',  ( 1.316288464743861212E-13, 1.499999999999998668, 37.69999999999999574 ) ) ;
#190 = ORIENTED_EDGE ( 'NONE', *, *, #132, .T. ) ;
#191 =( GEOMETRIC_REPRESENTATION_CONTEXT ( 3 ) GLOBAL_UNCERTAINTY_ASSIGNED_CONTEXT ( ( #87 ) ) GLOBAL_UNIT_ASSIGNED_CONTEXT ( ( #69, #71, #117 ) ) REPRESENTATION_CONTEXT ( 'NONE', 'WORKASPACE' ) );
#192 = APPROVAL_STATUS ( 'not_yet_approved' ) ;
#193 = EDGE_LOOP ( 'NONE', ( #27 ) ) ;
#194 = DIRECTION ( 'NONE',  ( 0.0000000000000000000, 1.000000000000000000, 0.0000000000000000000 ) ) ;
#195 = ORIENTED_EDGE ( 'NONE', *, *, #41, .F. ) ;
#196 = DIRECTION ( 'NONE',  ( -3.491481338843133355E-15, 1.224646799147353207E-16, -1.000000000000000000 ) ) ;
#197 = APPROVAL_ROLE ( '' ) ;
#198 = ORIENTED_EDGE ( 'NONE', *, *, #100, .T. ) ;
#199 = ADVANCED_FACE ( 'NONE', ( #67, #296 ), #277, .T. ) ;
#200 = FACE_OUTER_BOUND ( 'NONE', #270, .T. ) ;
#201 = FACE_OUTER_BOUND ( 'NONE', #106, .T. ) ;
#202 = CARTESIAN_POINT ( 'NONE',  ( 1.316288464743861212E-13, -4.616918432785521081E-15, 37.69999999999999574 ) ) ;
#203 = EDGE_CURVE ( 'NONE', #114, #114, #216, .T. ) ;
#204 = CARTESIAN_POINT ( 'NONE',  ( -6.542163345060739783E-32, 2.294682005283870598E-33, -1.873750053388060946E-17 ) ) ;
#205 = CARTESIAN_POINT ( 'NONE',  ( 2.444036937190193349E-14, 5.549111195848860970E-33, 7.000000000000000000 ) ) ;
#206 = VERTEX_POINT ( 'NONE', #22 ) ;
#207 = CARTESIAN_POINT ( 'NONE',  ( 2.444036937190193349E-14, 0.7399999999999992140, 7.000000000000000000 ) ) ;
#208 = PERSON_AND_ORGANIZATION ( #144, #290 ) ;
#209 = CONICAL_SURFACE ( 'NONE', #83, 0.7399999999999992140, 0.5235987755982932645 ) ;
#210 = DIRECTION ( 'NONE',  ( -3.491481338843133355E-15, 1.224646799147353207E-16, -1.000000000000000000 ) ) ;
#211 = DIRECTION ( 'NONE',  ( -4.275831445896958607E-31, -1.000000000000000000, -1.224646799147353207E-16 ) ) ;
#212 = PERSON_AND_ORGANIZATION ( #144, #290 ) ;
#213 = EDGE_LOOP ( 'NONE', ( #54 ) ) ;
#214 = APPROVAL_DATE_TIME ( #269, #49 ) ;
#215 = DIRECTION ( 'NONE',  ( -3.491481338843133355E-15, 1.224646799147353207E-16, -1.000000000000000000 ) ) ;
#216 = CIRCLE ( 'NONE', #119, 0.6803844939755806509 ) ;
#217 = CALENDAR_DATE ( 2021, 1, 12 ) ;
#218 = CONICAL_SURFACE ( 'NONE', #250, 1.200000000000003286, 0.7853981633974453924 ) ;
#219 = EDGE_LOOP ( 'NONE', ( #237 ) ) ;
#220 = DIRECTION ( 'NONE',  ( -3.491481338843133355E-15, 1.224646799147353207E-16, -1.000000000000000000 ) ) ;
#221 = DIRECTION ( 'NONE',  ( 4.275831445896958607E-31, 1.000000000000000000, 1.224646799147353207E-16 ) ) ;
#222 = DIRECTION ( 'NONE',  ( 0.0000000000000000000, 1.000000000000000000, 0.0000000000000000000 ) ) ;
#223 = SECURITY_CLASSIFICATION ( '', '', #58 ) ;
#224 = DIRECTION ( 'NONE',  ( -3.491481338843133355E-15, 1.224646799147353207E-16, -1.000000000000000000 ) ) ;
#225 = CC_DESIGN_PERSON_AND_ORGANIZATION_ASSIGNMENT ( #212, #264, ( #256 ) ) ;
#226 = CARTESIAN_POINT ( 'NONE',  ( 2.444036937190193349E-14, 5.549111195848860970E-33, 7.000000000000000000 ) ) ;
#227 = AXIS2_PLACEMENT_3D ( 'NONE', #108, #272, #68 ) ;
#228 = ADVANCED_FACE ( 'NONE', ( #62 ), #109, .T. ) ;
#229 = CARTESIAN_POINT ( 'NONE',  ( 8.728703347107833388E-16, 0.7399999999999992140, 0.2500000000000000000 ) ) ;
#230 = ADVANCED_FACE ( 'NONE', ( #107 ), #37, .F. ) ;
#231 = CARTESIAN_POINT ( 'NONE',  ( 1.326762908760390423E-13, 1.199999999999998845, 38.00000000000000000 ) ) ;
#232 = CALENDAR_DATE ( 2021, 1, 12 ) ;
#233 = COORDINATED_UNIVERSAL_TIME_OFFSET ( 1, 0, .AHEAD. ) ;
#234 = ORIENTED_EDGE ( 'NONE', *, *, #299, .F. ) ;
#235 = CC_DESIGN_PERSON_AND_ORGANIZATION_ASSIGNMENT ( #149, #26, ( #163 ) ) ;
#236 = APPROVAL_DATE_TIME ( #6, #295 ) ;
#237 = ORIENTED_EDGE ( 'NONE', *, *, #299, .T. ) ;
#238 = DATE_TIME_ROLE ( 'creation_date' ) ;
#239 = DIRECTION ( 'NONE',  ( 0.0000000000000000000, 1.000000000000000000, 0.0000000000000000000 ) ) ;
#240 = COORDINATED_UNIVERSAL_TIME_OFFSET ( 1, 0, .AHEAD. ) ;
#241 = EDGE_LOOP ( 'NONE', ( #75 ) ) ;
#242 = CLOSED_SHELL ( 'NONE', ( #184, #199, #243, #156, #150, #115, #258, #230 ) ) ;
#243 = ADVANCED_FACE ( 'NONE', ( #177, #303 ), #92, .T. ) ;
#244 = LOCAL_TIME ( 11, 40, 8.000000000000000000, #261 ) ;
#245 = DIRECTION ( 'NONE',  ( -3.491481338843133355E-15, 1.224646799147353207E-16, -1.000000000000000000 ) ) ;
#246 = DIRECTION ( 'NONE',  ( -3.491481338843133355E-15, 1.224646799147353207E-16, -1.000000000000000000 ) ) ;
#247 = FACE_BOUND ( 'NONE', #127, .T. ) ;
#248 = AXIS2_PLACEMENT_3D ( 'NONE', #157, #224, #186 ) ;
#249 = FACE_BOUND ( 'NONE', #59, .T. ) ;
#250 = AXIS2_PLACEMENT_3D ( 'NONE', #162, #220, #222 ) ;
#251 = DIRECTION ( 'NONE',  ( 4.275831445896958607E-31, 1.000000000000000000, 1.224646799147353207E-16 ) ) ;
#252 = MANIFOLD_SOLID_BREP ( 'Corps-Déplacer/Copier1[1]', #242 ) ;
#253 = CARTESIAN_POINT ( 'NONE',  ( 5.237222008264700033E-14, -1.734723475976807094E-15, 15.00000000000000000 ) ) ;
#254 = CIRCLE ( 'NONE', #2, 0.5956624327025947796 ) ;
#255 = VERTEX_POINT ( 'NONE', #229 ) ;
#256 = PRODUCT_DEFINITION ( 'UNKNOWN', '', #28, #47 ) ;
#257 = VERTEX_POINT ( 'NONE', #25 ) ;
#258 = ADVANCED_FACE ( 'NONE', ( #63, #249 ), #218, .T. ) ;
#259 = ORIENTED_EDGE ( 'NONE', *, *, #203, .T. ) ;
#260 = APPROVAL_PERSON_ORGANIZATION ( #267, #295, #53 ) ;
#261 = COORDINATED_UNIVERSAL_TIME_OFFSET ( 1, 0, .AHEAD. ) ;
#262 = DIRECTION ( 'NONE',  ( 1.000000000000000000, 0.0000000000000000000, 0.0000000000000000000 ) ) ;
#263 = EDGE_LOOP ( 'NONE', ( #52 ) ) ;
#264 = PERSON_AND_ORGANIZATION_ROLE ( 'creator' ) ;
#265 = CIRCLE ( 'NONE', #131, 1.499999999999997780 ) ;
#266 = CARTESIAN_POINT ( 'NONE',  ( 0.0000000000000000000, 0.0000000000000000000, 0.0000000000000000000 ) ) ;
#267 = PERSON_AND_ORGANIZATION ( #144, #290 ) ;
#268 = DIRECTION ( 'NONE',  ( -3.491481338843133355E-15, 1.224646799147353207E-16, -1.000000000000000000 ) ) ;
#269 = DATE_AND_TIME ( #56, #18 ) ;
#270 = EDGE_LOOP ( 'NONE', ( #82 ) ) ;
#271 = CARTESIAN_POINT ( 'NONE',  ( 2.444036937190193349E-14, -8.572527594031473190E-16, 7.000000000000000000 ) ) ;
#272 = DIRECTION ( 'NONE',  ( -3.491481338843133355E-15, 1.224646799147353207E-16, -1.000000000000000000 ) ) ;
#273 = FACE_BOUND ( 'NONE', #174, .T. ) ;
#274 = DIRECTION ( 'NONE',  ( -3.491481338843133355E-15, 1.224646799147353207E-16, -1.000000000000000000 ) ) ;
#275 = CARTESIAN_POINT ( 'NONE',  ( 8.728703347107829444E-16, -3.061616997868381785E-17, 0.2499999999999998890 ) ) ;
#276 = FACE_OUTER_BOUND ( 'NONE', #35, .T. ) ;
#277 = CONICAL_SURFACE ( 'NONE', #140, 0.6499999999999992450, 0.5235987755982942637 ) ;
#278 = VERTEX_POINT ( 'NONE', #139 ) ;
#279 = AXIS2_PLACEMENT_3D ( 'NONE', #202, #45, #188 ) ;
#280 = APPLICATION_PROTOCOL_DEFINITION ( 'international standard', 'config_control_design', 1994, #15 ) ;
#281 = CC_DESIGN_DATE_AND_TIME_ASSIGNMENT ( #293, #288, ( #223 ) ) ;
#282 = AXIS2_PLACEMENT_3D ( 'NONE', #289, #268, #122 ) ;
#283 = CARTESIAN_POINT ( 'NONE',  ( 5.358479882634336420E-14, 0.6803844939755787635, 15.34729635533384773 ) ) ;
#284 = SHAPE_DEFINITION_REPRESENTATION ( #113, #10 ) ;
#285 = EDGE_LOOP ( 'NONE', ( #190 ) ) ;
#286 = EDGE_CURVE ( 'NONE', #70, #70, #39, .T. ) ;
#287 = EDGE_LOOP ( 'NONE', ( #259 ) ) ;
#288 = DATE_TIME_ROLE ( 'classification_date' ) ;
#289 = CARTESIAN_POINT ( 'NONE',  ( 2.444036937190193349E-14, -8.572527594031473190E-16, 7.000000000000000000 ) ) ;
#290 = ORGANIZATION ( 'UNSPECIFIED', 'UNSPECIFIED', '' ) ;
#291 = APPLICATION_PROTOCOL_DEFINITION ( 'international standard', 'config_control_design', 1994, #42 ) ;
#292 = DIRECTION ( 'NONE',  ( 4.275831445896958607E-31, 1.000000000000000000, 1.224646799147353207E-16 ) ) ;
#293 = DATE_AND_TIME ( #217, #128 ) ;
#294 = ORIENTED_EDGE ( 'NONE', *, *, #125, .T. ) ;
#295 = APPROVAL ( #126, 'UNSPECIFIED' ) ;
#296 = FACE_BOUND ( 'NONE', #145, .T. ) ;
#297 = CIRCLE ( 'NONE', #158, 0.7399999999999992140 ) ;
#298 = CARTESIAN_POINT ( 'NONE',  ( 2.498463744843188742E-14, -8.763431137001960443E-16, 7.155884572681202371 ) ) ;
#299 = EDGE_CURVE ( 'NONE', #137, #137, #138, .T. ) ;
#300 = DIRECTION ( 'NONE',  ( 0.0000000000000000000, 1.000000000000000000, 0.0000000000000000000 ) ) ;
#301 = FACE_OUTER_BOUND ( 'NONE', #154, .T. ) ;
#302 = CONICAL_SURFACE ( 'NONE', #5, 1.499999999999997780, 0.1745329251994262587 ) ;
#303 = FACE_OUTER_BOUND ( 'NONE', #124, .T. ) ;
ENDSEC;
END-ISO-10303-21;
