ISO-10303-21;
HEADER;
FILE_DESCRIPTION (( 'STEP AP203' ),
    '1' );
FILE_NAME ('200780.step',
    '2021-12-01T10:40:07',
    ( '' ),
    ( '' ),
    'SwSTEP 2.0',
    'SolidWorks 2019',
    '' );
FILE_SCHEMA (( 'CONFIG_CONTROL_DESIGN' ));
ENDSEC;

DATA;
#1 = FACE_OUTER_BOUND ( 'NONE', #144, .T. ) ;
#2 = CYLINDRICAL_SURFACE ( 'NONE', #44, 0.6399999999999996803 ) ;
#3 = DIRECTION ( 'NONE',  ( -3.491481338843133355E-15, 1.224646799147353207E-16, -1.000000000000000000 ) ) ;
#4 = ADVANCED_FACE ( 'NONE', ( #303, #1 ), #207, .T. ) ;
#5 = AXIS2_PLACEMENT_3D ( 'NONE', #299, #72, #260 ) ;
#6 = CARTESIAN_POINT ( 'NONE',  ( 2.094888803305880013E-14, 4.799231304517933534E-33, 6.000000000000000000 ) ) ;
#7 = DIRECTION ( 'NONE',  ( -3.491481338843133355E-15, 1.224646799147353207E-16, -1.000000000000000000 ) ) ;
#8 = APPLICATION_CONTEXT ( 'configuration controlled 3d designs of mechanical parts and assemblies' ) ;
#9 = PLANE ( 'NONE',  #125 ) ;
#10 = AXIS2_PLACEMENT_3D ( 'NONE', #21, #253, #42 ) ;
#11 = LOCAL_TIME ( 11, 40, 7.000000000000000000, #181 ) ;
#12 = APPROVAL_DATE_TIME ( #251, #166 ) ;
#13 =( LENGTH_UNIT ( ) NAMED_UNIT ( * ) SI_UNIT ( .MILLI., .METRE. ) );
#14 = ADVANCED_FACE ( 'NONE', ( #97, #236 ), #193, .T. ) ;
#15 = CIRCLE ( 'NONE', #273, 0.6400000000000000133 ) ;
#16 = PRODUCT_DEFINITION_FORMATION_WITH_SPECIFIED_SOURCE ( 'ANY', '', #284, .NOT_KNOWN. ) ;
#17 = APPLICATION_PROTOCOL_DEFINITION ( 'international standard', 'config_control_design', 1994, #225 ) ;
#18 = DIRECTION ( 'NONE',  ( 1.000000000000000000, 0.0000000000000000000, 0.0000000000000000000 ) ) ;
#19 = DATE_AND_TIME ( #259, #245 ) ;
#20 = PERSON_AND_ORGANIZATION ( #222, #141 ) ;
#21 = CARTESIAN_POINT ( 'NONE',  ( 2.094888803305880013E-14, 4.799231304517933534E-33, 6.000000000000000000 ) ) ;
#22 = DIRECTION ( 'NONE',  ( 0.0000000000000000000, 1.000000000000000000, 0.0000000000000000000 ) ) ;
#23 = PRODUCT_RELATED_PRODUCT_CATEGORY ( 'detail', '', ( #284 ) ) ;
#24 = PERSON_AND_ORGANIZATION_ROLE ( 'creator' ) ;
#25 = PERSON_AND_ORGANIZATION_ROLE ( 'creator' ) ;
#26 = CLOSED_SHELL ( 'NONE', ( #212, #133, #180, #242, #84, #14, #229, #190 ) ) ;
#27 = EDGE_LOOP ( 'NONE', ( #90 ) ) ;
#28 = CONICAL_SURFACE ( 'NONE', #183, 1.200000000000003286, 0.7853981633974453924 ) ;
#29 = EDGE_LOOP ( 'NONE', ( #49 ) ) ;
#30 = EDGE_CURVE ( 'NONE', #38, #38, #15, .T. ) ;
#31 = FACE_OUTER_BOUND ( 'NONE', #171, .T. ) ;
#32 = DIRECTION ( 'NONE',  ( 0.0000000000000000000, 1.000000000000000000, 0.0000000000000000000 ) ) ;
#33 = CONICAL_SURFACE ( 'NONE', #203, 0.5499999999999991562, 0.5235987755982942637 ) ;
#34 = DIRECTION ( 'NONE',  ( 0.0000000000000000000, 1.000000000000000000, 0.0000000000000000000 ) ) ;
#35 = CARTESIAN_POINT ( 'NONE',  ( 1.326762908760390423E-13, 8.998558695971103225E-33, 38.00000000000000000 ) ) ;
#36 = FACE_OUTER_BOUND ( 'NONE', #211, .T. ) ;
#37 = CC_DESIGN_APPROVAL ( #300, ( #16 ) ) ;
#38 = VERTEX_POINT ( 'NONE', #57 ) ;
#39 =( NAMED_UNIT ( * ) SI_UNIT ( $, .STERADIAN. ) SOLID_ANGLE_UNIT ( ) );
#40 = MECHANICAL_CONTEXT ( 'NONE', #8, 'mechanical' ) ;
#41 = APPROVAL_STATUS ( 'not_yet_approved' ) ;
#42 = DIRECTION ( 'NONE',  ( -4.275831445896958607E-31, -1.000000000000000000, -1.224646799147353207E-16 ) ) ;
#43 = DATE_AND_TIME ( #67, #298 ) ;
#44 = AXIS2_PLACEMENT_3D ( 'NONE', #173, #3, #151 ) ;
#45 = EDGE_LOOP ( 'NONE', ( #116 ) ) ;
#46 = ADVANCED_FACE ( 'NONE', ( #64 ), #167, .T. ) ;
#47 = EDGE_LOOP ( 'NONE', ( #94 ) ) ;
#48 = COORDINATED_UNIVERSAL_TIME_OFFSET ( 1, 0, .AHEAD. ) ;
#49 = ORIENTED_EDGE ( 'NONE', *, *, #79, .F. ) ;
#50 = PRODUCT_DEFINITION_SHAPE ( 'NONE', 'NONE',  #237 ) ;
#51 = CARTESIAN_POINT ( 'NONE',  ( 2.094888803305880013E-14, -7.347880794884119736E-16, 6.000000000000000000 ) ) ;
#52 = DIRECTION ( 'NONE',  ( 0.0000000000000000000, 1.000000000000000000, 0.0000000000000000000 ) ) ;
#53 = DIRECTION ( 'NONE',  ( 4.275831445896958607E-31, 1.000000000000000000, 1.224646799147353207E-16 ) ) ;
#54 = FACE_BOUND ( 'NONE', #280, .T. ) ;
#55 = DIRECTION ( 'NONE',  ( -3.491481338843133355E-15, 1.224646799147353207E-16, -1.000000000000000000 ) ) ;
#56 = FACE_BOUND ( 'NONE', #71, .T. ) ;
#57 = CARTESIAN_POINT ( 'NONE',  ( 2.094888803305880013E-14, 0.6399999999999993472, 6.000000000000000000 ) ) ;
#58 = CIRCLE ( 'NONE', #295, 0.4956624327025949128 ) ;
#59 = APPROVAL_STATUS ( 'not_yet_approved' ) ;
#60 = DIRECTION ( 'NONE',  ( 3.009265538105059086E-31, 1.000000000000000000, 8.470329472543012019E-17 ) ) ;
#61 = AXIS2_PLACEMENT_3D ( 'NONE', #174, #177, #196 ) ;
#62 = APPROVAL_ROLE ( '' ) ;
#63 = APPROVAL_ROLE ( '' ) ;
#64 = FACE_OUTER_BOUND ( 'NONE', #165, .T. ) ;
#65 = EDGE_LOOP ( 'NONE', ( #234 ) ) ;
#66 = AXIS2_PLACEMENT_3D ( 'NONE', #176, #55, #155 ) ;
#67 = CALENDAR_DATE ( 2021, 1, 12 ) ;
#68 = AXIS2_PLACEMENT_3D ( 'NONE', #152, #239, #60 ) ;
#69 = EDGE_LOOP ( 'NONE', ( #186 ) ) ;
#70 = APPROVAL_DATE_TIME ( #19, #95 ) ;
#71 = EDGE_LOOP ( 'NONE', ( #191 ) ) ;
#72 = DIRECTION ( 'NONE',  ( -3.491481338843133355E-15, 1.224646799147353207E-16, -1.000000000000000000 ) ) ;
#73 = EDGE_CURVE ( 'NONE', #270, #270, #149, .T. ) ;
#74 = AXIS2_PLACEMENT_3D ( 'NONE', #231, #255, #32 ) ;
#75 = DIRECTION ( 'NONE',  ( -3.491481338843133355E-15, 1.224646799147353207E-16, -1.000000000000000000 ) ) ;
#76 = SECURITY_CLASSIFICATION ( '', '', #281 ) ;
#77 = DIRECTION ( 'NONE',  ( 0.0000000000000000000, 1.000000000000000000, 0.0000000000000000000 ) ) ;
#78 = DIRECTION ( 'NONE',  ( -3.491481338843133355E-15, 1.224646799147353207E-16, -1.000000000000000000 ) ) ;
#79 = EDGE_CURVE ( 'NONE', #202, #202, #58, .T. ) ;
#80 = CARTESIAN_POINT ( 'NONE',  ( 2.149315610958875407E-14, -7.538784337854606989E-16, 6.155884572681202371 ) ) ;
#81 = LOCAL_TIME ( 11, 40, 7.000000000000000000, #113 ) ;
#82 = DIRECTION ( 'NONE',  ( -3.491481338843133355E-15, 1.224646799147353207E-16, -1.000000000000000000 ) ) ;
#83 = CARTESIAN_POINT ( 'NONE',  ( 2.149315610958875407E-14, 0.5499999999999983791, 6.155884572681202371 ) ) ;
#84 = ADVANCED_FACE ( 'NONE', ( #54, #262 ), #189, .T. ) ;
#85 = DIRECTION ( 'NONE',  ( 0.0000000000000000000, 0.0000000000000000000, 1.000000000000000000 ) ) ;
#86 = AXIS2_PLACEMENT_3D ( 'NONE', #267, #7, #34 ) ;
#87 = ORIENTED_EDGE ( 'NONE', *, *, #30, .T. ) ;
#88 = DIRECTION ( 'NONE',  ( 0.0000000000000000000, 1.000000000000000000, 0.0000000000000000000 ) ) ;
#89 = CIRCLE ( 'NONE', #68, 0.6399999999999993472 ) ;
#90 = ORIENTED_EDGE ( 'NONE', *, *, #103, .T. ) ;
#91 = DATE_TIME_ROLE ( 'creation_date' ) ;
#92 = EDGE_LOOP ( 'NONE', ( #118 ) ) ;
#93 = DATE_AND_TIME ( #117, #120 ) ;
#94 = ORIENTED_EDGE ( 'NONE', *, *, #264, .T. ) ;
#95 = APPROVAL ( #192, 'UNSPECIFIED' ) ;
#96 = DATE_AND_TIME ( #145, #81 ) ;
#97 = FACE_OUTER_BOUND ( 'NONE', #65, .T. ) ;
#98 = CARTESIAN_POINT ( 'NONE',  ( 4.538925740496073362E-14, -1.592040838891559095E-15, 13.00000000000000000 ) ) ;
#99 = UNCERTAINTY_MEASURE_WITH_UNIT (LENGTH_MEASURE( 1.000000000000000082E-05 ), #13, 'distance_accuracy_value', 'NONE');
#100 = AXIS2_PLACEMENT_3D ( 'NONE', #289, #78, #175 ) ;
#101 = DIRECTION ( 'NONE',  ( 4.275831445896958607E-31, 1.000000000000000000, 1.224646799147353207E-16 ) ) ;
#102 = DIRECTION ( 'NONE',  ( 0.0000000000000000000, 1.000000000000000000, 0.0000000000000000000 ) ) ;
#103 = EDGE_CURVE ( 'NONE', #271, #271, #232, .T. ) ;
#104 = CARTESIAN_POINT ( 'NONE',  ( -4.012104842682702298E-31, 1.407256942425181130E-32, -1.149112497909575541E-16 ) ) ;
#105 = DIRECTION ( 'NONE',  ( 3.491481338843133355E-15, -1.224646799147353207E-16, 1.000000000000000000 ) ) ;
#106 = CIRCLE ( 'NONE', #204, 0.5500000000000000444 ) ;
#107 = PERSON_AND_ORGANIZATION ( #222, #141 ) ;
#108 = APPLICATION_PROTOCOL_DEFINITION ( 'international standard', 'config_control_design', 1994, #8 ) ;
#109 = CC_DESIGN_DATE_AND_TIME_ASSIGNMENT ( #93, #91, ( #237 ) ) ;
#110 = PERSON_AND_ORGANIZATION ( #222, #141 ) ;
#111 = CARTESIAN_POINT ( 'NONE',  ( 4.660183614865709118E-14, 0.5803844939755788968, 13.34729635533384595 ) ) ;
#112 = CC_DESIGN_SECURITY_CLASSIFICATION ( #76, ( #16 ) ) ;
#113 = COORDINATED_UNIVERSAL_TIME_OFFSET ( 1, 0, .AHEAD. ) ;
#114 = EDGE_LOOP ( 'NONE', ( #121 ) ) ;
#115 = COORDINATED_UNIVERSAL_TIME_OFFSET ( 1, 0, .AHEAD. ) ;
#116 = ORIENTED_EDGE ( 'NONE', *, *, #220, .F. ) ;
#117 = CALENDAR_DATE ( 2021, 1, 12 ) ;
#118 = ORIENTED_EDGE ( 'NONE', *, *, #215, .F. ) ;
#119 = PERSON_AND_ORGANIZATION_ROLE ( 'design_supplier' ) ;
#120 = LOCAL_TIME ( 11, 40, 7.000000000000000000, #254 ) ;
#121 = ORIENTED_EDGE ( 'NONE', *, *, #79, .T. ) ;
#122 = ORIENTED_EDGE ( 'NONE', *, *, #73, .T. ) ;
#123 = DIRECTION ( 'NONE',  ( -3.491481338843133355E-15, 1.224646799147353207E-16, -1.000000000000000000 ) ) ;
#124 = FACE_OUTER_BOUND ( 'NONE', #45, .T. ) ;
#125 = AXIS2_PLACEMENT_3D ( 'NONE', #6, #105, #218 ) ;
#126 = EDGE_CURVE ( 'NONE', #205, #205, #139, .T. ) ;
#127 = DIRECTION ( 'NONE',  ( -3.491481338843133355E-15, 1.224646799147353207E-16, -1.000000000000000000 ) ) ;
#128 = DIRECTION ( 'NONE',  ( 3.491481338843133355E-15, -1.224646799147353207E-16, 1.000000000000000000 ) ) ;
#129 = FACE_OUTER_BOUND ( 'NONE', #258, .T. ) ;
#130 = APPROVAL_PERSON_ORGANIZATION ( #302, #300, #63 ) ;
#131 = PERSON_AND_ORGANIZATION_ROLE ( 'design_owner' ) ;
#132 = CARTESIAN_POINT ( 'NONE',  ( 1.316288464743861212E-13, 1.499999999999998668, 37.69999999999999574 ) ) ;
#133 = ADVANCED_FACE ( 'NONE', ( #31, #219 ), #33, .T. ) ;
#134 = AXIS2_PLACEMENT_3D ( 'NONE', #195, #127, #53 ) ;
#135 = VERTEX_POINT ( 'NONE', #228 ) ;
#136 = PERSON_AND_ORGANIZATION ( #222, #141 ) ;
#137 = ORIENTED_EDGE ( 'NONE', *, *, #126, .F. ) ;
#138 = DESIGN_CONTEXT ( 'detailed design', #225, 'design' ) ;
#139 = CIRCLE ( 'NONE', #86, 0.6400000000000000133 ) ;
#140 = MANIFOLD_SOLID_BREP ( 'Corps-Déplacer/Copier1[2]', #279 ) ;
#141 = ORGANIZATION ( 'UNSPECIFIED', 'UNSPECIFIED', '' ) ;
#142 = CC_DESIGN_PERSON_AND_ORGANIZATION_ASSIGNMENT ( #107, #24, ( #237 ) ) ;
#143 = MANIFOLD_SOLID_BREP ( 'Corps-Déplacer/Copier1[1]', #26 ) ;
#144 = EDGE_LOOP ( 'NONE', ( #169 ) ) ;
#145 = CALENDAR_DATE ( 2021, 1, 12 ) ;
#146 = ORIENTED_EDGE ( 'NONE', *, *, #73, .F. ) ;
#147 = SHAPE_DEFINITION_REPRESENTATION ( #50, #168 ) ;
#148 = EDGE_LOOP ( 'NONE', ( #257 ) ) ;
#149 = CIRCLE ( 'NONE', #74, 0.5499999999999991562 ) ;
#150 = EDGE_LOOP ( 'NONE', ( #87 ) ) ;
#151 = DIRECTION ( 'NONE',  ( 4.275831445896958607E-31, 1.000000000000000000, 1.224646799147353207E-16 ) ) ;
#152 = CARTESIAN_POINT ( 'NONE',  ( 8.728703347107831416E-16, -3.061616997868382402E-17, 0.2499999999999999445 ) ) ;
#153 = AXIS2_PLACEMENT_3D ( 'NONE', #288, #128, #197 ) ;
#154 = FACE_OUTER_BOUND ( 'NONE', #301, .T. ) ;
#155 = DIRECTION ( 'NONE',  ( 0.0000000000000000000, 1.000000000000000000, 0.0000000000000000000 ) ) ;
#156 = CARTESIAN_POINT ( 'NONE',  ( 1.326762908760390423E-13, -4.653657836759941941E-15, 38.00000000000000000 ) ) ;
#157 = CC_DESIGN_PERSON_AND_ORGANIZATION_ASSIGNMENT ( #210, #278, ( #76 ) ) ;
#158 = VERTEX_POINT ( 'NONE', #224 ) ;
#159 = PERSON_AND_ORGANIZATION ( #222, #141 ) ;
#160 = EDGE_CURVE ( 'NONE', #162, #162, #256, .T. ) ;
#161 = CARTESIAN_POINT ( 'NONE',  ( 8.728703347107833388E-16, 0.6399999999999993472, 0.2500000000000000000 ) ) ;
#162 = VERTEX_POINT ( 'NONE', #111 ) ;
#163 = CIRCLE ( 'NONE', #61, 1.200000000000003286 ) ;
#164 = CALENDAR_DATE ( 2021, 1, 12 ) ;
#165 = EDGE_LOOP ( 'NONE', ( #137 ) ) ;
#166 = APPROVAL ( #59, 'UNSPECIFIED' ) ;
#167 = PLANE ( 'NONE',  #10 ) ;
#168 = ADVANCED_BREP_SHAPE_REPRESENTATION ( '200780', ( #143, #140, #266 ), #223 ) ;
#169 = ORIENTED_EDGE ( 'NONE', *, *, #250, .T. ) ;
#170 = ORIENTED_EDGE ( 'NONE', *, *, #160, .F. ) ;
#171 = EDGE_LOOP ( 'NONE', ( #213 ) ) ;
#172 = AXIS2_PLACEMENT_3D ( 'NONE', #182, #292, #246 ) ;
#173 = CARTESIAN_POINT ( 'NONE',  ( 0.0000000000000000000, 0.0000000000000000000, 0.0000000000000000000 ) ) ;
#174 = CARTESIAN_POINT ( 'NONE',  ( 1.326762908760390423E-13, -4.653657836759941941E-15, 38.00000000000000000 ) ) ;
#175 = DIRECTION ( 'NONE',  ( 0.0000000000000000000, 1.000000000000000000, 0.0000000000000000000 ) ) ;
#176 = CARTESIAN_POINT ( 'NONE',  ( 4.660183614865709118E-14, -1.634572375883072808E-15, 13.34729635533384595 ) ) ;
#177 = DIRECTION ( 'NONE',  ( -3.491481338843133355E-15, 1.224646799147353207E-16, -1.000000000000000000 ) ) ;
#178 = CARTESIAN_POINT ( 'NONE',  ( -1.892735826383161794E-31, 0.4956624327025949128, -5.421010862427522170E-17 ) ) ;
#179 = PLANE ( 'NONE',  #172 ) ;
#180 = ADVANCED_FACE ( 'NONE', ( #243, #154 ), #291, .T. ) ;
#181 = COORDINATED_UNIVERSAL_TIME_OFFSET ( 1, 0, .AHEAD. ) ;
#182 = CARTESIAN_POINT ( 'NONE',  ( -2.006052421341351149E-31, 7.036284712125905649E-33, -5.745562489547877703E-17 ) ) ;
#183 = AXIS2_PLACEMENT_3D ( 'NONE', #156, #244, #52 ) ;
#184 = CARTESIAN_POINT ( 'NONE',  ( 8.728703347107831416E-16, -3.061616997868382402E-17, 0.2499999999999999445 ) ) ;
#185 = CC_DESIGN_PERSON_AND_ORGANIZATION_ASSIGNMENT ( #136, #119, ( #16 ) ) ;
#186 = ORIENTED_EDGE ( 'NONE', *, *, #264, .F. ) ;
#187 = APPROVAL_DATE_TIME ( #43, #300 ) ;
#188 = EDGE_LOOP ( 'NONE', ( #146 ) ) ;
#189 = CONICAL_SURFACE ( 'NONE', #153, 1.499999999999997558, 0.1745329251994261199 ) ;
#190 = ADVANCED_FACE ( 'NONE', ( #124 ), #221, .F. ) ;
#191 = ORIENTED_EDGE ( 'NONE', *, *, #220, .T. ) ;
#192 = APPROVAL_STATUS ( 'not_yet_approved' ) ;
#193 = CYLINDRICAL_SURFACE ( 'NONE', #5, 1.500000000000000444 ) ;
#194 = CC_DESIGN_APPROVAL ( #95, ( #76 ) ) ;
#195 = CARTESIAN_POINT ( 'NONE',  ( 0.0000000000000000000, 0.0000000000000000000, 0.0000000000000000000 ) ) ;
#196 = DIRECTION ( 'NONE',  ( 0.0000000000000000000, 1.000000000000000000, 0.0000000000000000000 ) ) ;
#197 = DIRECTION ( 'NONE',  ( 0.0000000000000000000, -1.000000000000000000, 0.0000000000000000000 ) ) ;
#198 = AXIS2_PLACEMENT_3D ( 'NONE', #184, #209, #214 ) ;
#199 = CC_DESIGN_APPROVAL ( #166, ( #237 ) ) ;
#200 = DIRECTION ( 'NONE',  ( -3.491481338843133355E-15, 1.224646799147353207E-16, -1.000000000000000000 ) ) ;
#201 = CARTESIAN_POINT ( 'NONE',  ( 6.481130338557338987E-14, 1.499999999999995559, 18.56269505568887013 ) ) ;
#202 = VERTEX_POINT ( 'NONE', #178 ) ;
#203 = AXIS2_PLACEMENT_3D ( 'NONE', #80, #200, #102 ) ;
#204 = AXIS2_PLACEMENT_3D ( 'NONE', #98, #82, #77 ) ;
#205 = VERTEX_POINT ( 'NONE', #294 ) ;
#206 = CC_DESIGN_PERSON_AND_ORGANIZATION_ASSIGNMENT ( #275, #25, ( #16 ) ) ;
#207 = CONICAL_SURFACE ( 'NONE', #198, 0.6399999999999993472, 0.5235987755982925984 ) ;
#208 = CIRCLE ( 'NONE', #249, 1.500000000000003331 ) ;
#209 = DIRECTION ( 'NONE',  ( 3.491481338843133355E-15, -1.224646799147353207E-16, 1.000000000000000000 ) ) ;
#210 = PERSON_AND_ORGANIZATION ( #222, #141 ) ;
#211 = EDGE_LOOP ( 'NONE', ( #282 ) ) ;
#212 = ADVANCED_FACE ( 'NONE', ( #241 ), #9, .F. ) ;
#213 = ORIENTED_EDGE ( 'NONE', *, *, #30, .F. ) ;
#214 = DIRECTION ( 'NONE',  ( -3.009265538105059086E-31, -1.000000000000000000, -8.470329472543012019E-17 ) ) ;
#215 = EDGE_CURVE ( 'NONE', #135, #135, #106, .T. ) ;
#216 = DIRECTION ( 'NONE',  ( -3.491481338843133355E-15, 1.224646799147353207E-16, -1.000000000000000000 ) ) ;
#217 = APPROVAL_PERSON_ORGANIZATION ( #110, #166, #62 ) ;
#218 = DIRECTION ( 'NONE',  ( -4.275831445896958607E-31, -1.000000000000000000, -1.224646799147353207E-16 ) ) ;
#219 = FACE_BOUND ( 'NONE', #235, .T. ) ;
#220 = EDGE_CURVE ( 'NONE', #158, #158, #163, .T. ) ;
#221 = PLANE ( 'NONE',  #227 ) ;
#222 = PERSON ( 'UNSPECIFIED', 'UNSPECIFIED', 'UNSPECIFIED', ('UNSPECIFIED'), ('UNSPECIFIED'), ('UNSPECIFIED') ) ;
#223 =( GEOMETRIC_REPRESENTATION_CONTEXT ( 3 ) GLOBAL_UNCERTAINTY_ASSIGNED_CONTEXT ( ( #99 ) ) GLOBAL_UNIT_ASSIGNED_CONTEXT ( ( #13, #272, #39 ) ) REPRESENTATION_CONTEXT ( 'NONE', 'WORKASPACE' ) );
#224 = CARTESIAN_POINT ( 'NONE',  ( 1.326762908760390423E-13, 1.199999999999998845, 38.00000000000000000 ) ) ;
#225 = APPLICATION_CONTEXT ( 'configuration controlled 3d designs of mechanical parts and assemblies' ) ;
#226 = DIRECTION ( 'NONE',  ( -3.491481338843133355E-15, 1.224646799147353207E-16, -1.000000000000000000 ) ) ;
#227 = AXIS2_PLACEMENT_3D ( 'NONE', #35, #75, #286 ) ;
#228 = CARTESIAN_POINT ( 'NONE',  ( 4.538925740496073362E-14, 0.5499999999999983791, 13.00000000000000000 ) ) ;
#229 = ADVANCED_FACE ( 'NONE', ( #268, #56 ), #28, .T. ) ;
#230 = APPROVAL_ROLE ( '' ) ;
#231 = CARTESIAN_POINT ( 'NONE',  ( 2.149315610958875407E-14, -7.538784337854606989E-16, 6.155884572681202371 ) ) ;
#232 = CIRCLE ( 'NONE', #100, 1.499999999999997558 ) ;
#233 = ADVANCED_FACE ( 'NONE', ( #36, #129 ), #2, .T. ) ;
#234 = ORIENTED_EDGE ( 'NONE', *, *, #103, .F. ) ;
#235 = EDGE_LOOP ( 'NONE', ( #122 ) ) ;
#236 = FACE_OUTER_BOUND ( 'NONE', #47, .T. ) ;
#237 = PRODUCT_DEFINITION ( 'UNKNOWN', '', #16, #138 ) ;
#238 = CARTESIAN_POINT ( 'NONE',  ( 4.538925740496073362E-14, -1.734723475976807094E-15, 13.00000000000000000 ) ) ;
#239 = DIRECTION ( 'NONE',  ( -3.491481338843133355E-15, 1.224646799147353207E-16, -1.000000000000000000 ) ) ;
#240 = APPROVAL_PERSON_ORGANIZATION ( #20, #95, #230 ) ;
#241 = FACE_OUTER_BOUND ( 'NONE', #150, .T. ) ;
#242 = ADVANCED_FACE ( 'NONE', ( #263, #285 ), #274, .F. ) ;
#243 = FACE_OUTER_BOUND ( 'NONE', #188, .T. ) ;
#244 = DIRECTION ( 'NONE',  ( -3.491481338843133355E-15, 1.224646799147353207E-16, -1.000000000000000000 ) ) ;
#245 = LOCAL_TIME ( 11, 40, 7.000000000000000000, #48 ) ;
#246 = DIRECTION ( 'NONE',  ( -4.275831445896958607E-31, -1.000000000000000000, -1.224646799147353207E-16 ) ) ;
#247 = VERTEX_POINT ( 'NONE', #161 ) ;
#248 = CARTESIAN_POINT ( 'NONE',  ( 0.0000000000000000000, 0.0000000000000000000, 0.0000000000000000000 ) ) ;
#249 = AXIS2_PLACEMENT_3D ( 'NONE', #296, #226, #88 ) ;
#250 = EDGE_CURVE ( 'NONE', #247, #247, #89, .T. ) ;
#251 = DATE_AND_TIME ( #164, #11 ) ;
#252 = DATE_TIME_ROLE ( 'classification_date' ) ;
#253 = DIRECTION ( 'NONE',  ( 3.491481338843133355E-15, -1.224646799147353207E-16, 1.000000000000000000 ) ) ;
#254 = COORDINATED_UNIVERSAL_TIME_OFFSET ( 1, 0, .AHEAD. ) ;
#255 = DIRECTION ( 'NONE',  ( -3.491481338843133355E-15, 1.224646799147353207E-16, -1.000000000000000000 ) ) ;
#256 = CIRCLE ( 'NONE', #66, 0.5803844939755805621 ) ;
#257 = ORIENTED_EDGE ( 'NONE', *, *, #160, .T. ) ;
#258 = EDGE_LOOP ( 'NONE', ( #283 ) ) ;
#259 = CALENDAR_DATE ( 2021, 1, 12 ) ;
#260 = DIRECTION ( 'NONE',  ( 4.275831445896958607E-31, 1.000000000000000000, 1.224646799147353207E-16 ) ) ;
#261 = AXIS2_PLACEMENT_3D ( 'NONE', #238, #123, #101 ) ;
#262 = FACE_OUTER_BOUND ( 'NONE', #27, .T. ) ;
#263 = FACE_OUTER_BOUND ( 'NONE', #92, .T. ) ;
#264 = EDGE_CURVE ( 'NONE', #297, #297, #208, .T. ) ;
#265 = DIRECTION ( 'NONE',  ( 4.275831445896958607E-31, 1.000000000000000000, 1.224646799147353454E-16 ) ) ;
#266 = AXIS2_PLACEMENT_3D ( 'NONE', #248, #85, #18 ) ;
#267 = CARTESIAN_POINT ( 'NONE',  ( 2.094888803305880013E-14, -7.347880794884119736E-16, 6.000000000000000000 ) ) ;
#268 = FACE_OUTER_BOUND ( 'NONE', #69, .T. ) ;
#269 = FACE_OUTER_BOUND ( 'NONE', #114, .T. ) ;
#270 = VERTEX_POINT ( 'NONE', #83 ) ;
#271 = VERTEX_POINT ( 'NONE', #201 ) ;
#272 =( NAMED_UNIT ( * ) PLANE_ANGLE_UNIT ( ) SI_UNIT ( $, .RADIAN. ) );
#273 = AXIS2_PLACEMENT_3D ( 'NONE', #51, #276, #22 ) ;
#274 = TOROIDAL_SURFACE ( 'NONE', #261, 2.550000000000000266, 2.000000000000000444 ) ;
#275 = PERSON_AND_ORGANIZATION ( #222, #141 ) ;
#276 = DIRECTION ( 'NONE',  ( -3.491481338843133355E-15, 1.224646799147353207E-16, -1.000000000000000000 ) ) ;
#277 = ORIENTED_EDGE ( 'NONE', *, *, #215, .T. ) ;
#278 = PERSON_AND_ORGANIZATION_ROLE ( 'classification_officer' ) ;
#279 = CLOSED_SHELL ( 'NONE', ( #287, #4, #233, #46 ) ) ;
#280 = EDGE_LOOP ( 'NONE', ( #170 ) ) ;
#281 = SECURITY_CLASSIFICATION_LEVEL ( 'unclassified' ) ;
#282 = ORIENTED_EDGE ( 'NONE', *, *, #250, .F. ) ;
#283 = ORIENTED_EDGE ( 'NONE', *, *, #126, .T. ) ;
#284 = PRODUCT ( '200780', '200780', '', ( #40 ) ) ;
#285 = FACE_OUTER_BOUND ( 'NONE', #148, .T. ) ;
#286 = DIRECTION ( 'NONE',  ( 4.275831445896958607E-31, 1.000000000000000000, 1.224646799147353207E-16 ) ) ;
#287 = ADVANCED_FACE ( 'NONE', ( #269 ), #179, .F. ) ;
#288 = CARTESIAN_POINT ( 'NONE',  ( 6.481130338557338987E-14, -2.273274508349777470E-15, 18.56269505568887013 ) ) ;
#289 = CARTESIAN_POINT ( 'NONE',  ( 6.481130338557338987E-14, -2.273274508349777470E-15, 18.56269505568887013 ) ) ;
#290 = CC_DESIGN_DATE_AND_TIME_ASSIGNMENT ( #96, #252, ( #76 ) ) ;
#291 = CYLINDRICAL_SURFACE ( 'NONE', #134, 0.5499999999999996003 ) ;
#292 = DIRECTION ( 'NONE',  ( 3.491481338843133355E-15, -1.224646799147353207E-16, 1.000000000000000000 ) ) ;
#293 = CC_DESIGN_PERSON_AND_ORGANIZATION_ASSIGNMENT ( #159, #131, ( #284 ) ) ;
#294 = CARTESIAN_POINT ( 'NONE',  ( 2.094888803305880013E-14, 0.6399999999999993472, 6.000000000000000000 ) ) ;
#295 = AXIS2_PLACEMENT_3D ( 'NONE', #104, #216, #265 ) ;
#296 = CARTESIAN_POINT ( 'NONE',  ( 1.316288464743861212E-13, -4.616918432785521081E-15, 37.69999999999999574 ) ) ;
#297 = VERTEX_POINT ( 'NONE', #132 ) ;
#298 = LOCAL_TIME ( 11, 40, 7.000000000000000000, #115 ) ;
#299 = CARTESIAN_POINT ( 'NONE',  ( 0.0000000000000000000, 0.0000000000000000000, 0.0000000000000000000 ) ) ;
#300 = APPROVAL ( #41, 'UNSPECIFIED' ) ;
#301 = EDGE_LOOP ( 'NONE', ( #277 ) ) ;
#302 = PERSON_AND_ORGANIZATION ( #222, #141 ) ;
#303 = FACE_BOUND ( 'NONE', #29, .T. ) ;
ENDSEC;
END-ISO-10303-21;
