ISO-10303-21;
HEADER;
FILE_DESCRIPTION (( 'STEP AP203' ),
    '1' );
FILE_NAME ('200779.step',
    '2021-12-01T10:40:07',
    ( '' ),
    ( '' ),
    'SwSTEP 2.0',
    'SolidWorks 2019',
    '' );
FILE_SCHEMA (( 'CONFIG_CONTROL_DESIGN' ));
ENDSEC;

DATA;
#1 = AXIS2_PLACEMENT_3D ( 'NONE', #157, #135, #112 ) ;
#2 = ADVANCED_FACE ( 'NONE', ( #295, #86 ), #279, .T. ) ;
#3 = CC_DESIGN_DATE_AND_TIME_ASSIGNMENT ( #296, #115, ( #30 ) ) ;
#4 = DIRECTION ( 'NONE',  ( -4.275831445896958607E-31, -1.000000000000000000, -1.224646799147353207E-16 ) ) ;
#5 = APPROVAL_PERSON_ORGANIZATION ( #16, #148, #187 ) ;
#6 = CARTESIAN_POINT ( 'NONE',  ( 4.660183614865710380E-14, -1.634572375883073202E-15, 13.34729635533384950 ) ) ;
#7 = EDGE_CURVE ( 'NONE', #291, #291, #175, .T. ) ;
#8 = VERTEX_POINT ( 'NONE', #198 ) ;
#9 = DIRECTION ( 'NONE',  ( -3.491481338843133355E-15, 1.224646799147353207E-16, -1.000000000000000000 ) ) ;
#10 = EDGE_CURVE ( 'NONE', #220, #220, #67, .T. ) ;
#11 = AXIS2_PLACEMENT_3D ( 'NONE', #143, #27, #32 ) ;
#12 = VERTEX_POINT ( 'NONE', #38 ) ;
#13 = CC_DESIGN_PERSON_AND_ORGANIZATION_ASSIGNMENT ( #46, #64, ( #30 ) ) ;
#14 =( NAMED_UNIT ( * ) SI_UNIT ( $, .STERADIAN. ) SOLID_ANGLE_UNIT ( ) );
#15 = EDGE_LOOP ( 'NONE', ( #39 ) ) ;
#16 = PERSON_AND_ORGANIZATION ( #75, #199 ) ;
#17 = CC_DESIGN_PERSON_AND_ORGANIZATION_ASSIGNMENT ( #42, #230, ( #120 ) ) ;
#18 = ORIENTED_EDGE ( 'NONE', *, *, #259, .F. ) ;
#19 = APPLICATION_PROTOCOL_DEFINITION ( 'international standard', 'config_control_design', 1994, #260 ) ;
#20 = ORIENTED_EDGE ( 'NONE', *, *, #107, .T. ) ;
#21 = COORDINATED_UNIVERSAL_TIME_OFFSET ( 1, 0, .AHEAD. ) ;
#22 = EDGE_LOOP ( 'NONE', ( #184 ) ) ;
#23 = ADVANCED_FACE ( 'NONE', ( #89, #231 ), #147, .T. ) ;
#24 = CC_DESIGN_APPROVAL ( #222, ( #116 ) ) ;
#25 = PERSON_AND_ORGANIZATION ( #75, #199 ) ;
#26 = ORIENTED_EDGE ( 'NONE', *, *, #176, .T. ) ;
#27 = DIRECTION ( 'NONE',  ( 3.491481338843133355E-15, -1.224646799147353207E-16, 1.000000000000000000 ) ) ;
#28 = CARTESIAN_POINT ( 'NONE',  ( 2.140244476350043209E-14, -7.506967080692859607E-16, 6.129903810567669531 ) ) ;
#29 = FACE_OUTER_BOUND ( 'NONE', #253, .T. ) ;
#30 = PRODUCT_DEFINITION ( 'UNKNOWN', '', #209, #236 ) ;
#31 = AXIS2_PLACEMENT_3D ( 'NONE', #131, #251, #114 ) ;
#32 = DIRECTION ( 'NONE',  ( -2.962969145211135349E-31, -1.000000000000000000, -8.340016711426966382E-17 ) ) ;
#33 = AXIS2_PLACEMENT_3D ( 'NONE', #99, #221, #200 ) ;
#34 = DIRECTION ( 'NONE',  ( 3.491481338843133355E-15, -1.224646799147353207E-16, 1.000000000000000000 ) ) ;
#35 = FACE_OUTER_BOUND ( 'NONE', #119, .T. ) ;
#36 = CARTESIAN_POINT ( 'NONE',  ( 8.728703347107833388E-16, 0.6499999999999992450, 0.2500000000000000000 ) ) ;
#37 = LOCAL_TIME ( 11, 40, 7.000000000000000000, #88 ) ;
#38 = CARTESIAN_POINT ( 'NONE',  ( 1.316288464743861212E-13, 1.499999999999998668, 37.69999999999999574 ) ) ;
#39 = ORIENTED_EDGE ( 'NONE', *, *, #183, .F. ) ;
#40 = DIRECTION ( 'NONE',  ( 4.275831445896958607E-31, 1.000000000000000000, 1.224646799147353207E-16 ) ) ;
#41 = AXIS2_PLACEMENT_3D ( 'NONE', #248, #206, #40 ) ;
#42 = PERSON_AND_ORGANIZATION ( #75, #199 ) ;
#43 = ORIENTED_EDGE ( 'NONE', *, *, #72, .F. ) ;
#44 = SECURITY_CLASSIFICATION_LEVEL ( 'unclassified' ) ;
#45 = EDGE_LOOP ( 'NONE', ( #159 ) ) ;
#46 = PERSON_AND_ORGANIZATION ( #75, #199 ) ;
#47 = ORIENTED_EDGE ( 'NONE', *, *, #7, .T. ) ;
#48 = AXIS2_PLACEMENT_3D ( 'NONE', #79, #145, #237 ) ;
#49 = PERSON_AND_ORGANIZATION ( #75, #199 ) ;
#50 = DIRECTION ( 'NONE',  ( -4.275831445896958607E-31, -1.000000000000000000, -1.224646799147353207E-16 ) ) ;
#51 = AXIS2_PLACEMENT_3D ( 'NONE', #82, #263, #303 ) ;
#52 = CYLINDRICAL_SURFACE ( 'NONE', #33, 0.6499999999999995781 ) ;
#53 = CARTESIAN_POINT ( 'NONE',  ( 2.140244476350043209E-14, -7.506967080692859607E-16, 6.129903810567669531 ) ) ;
#54 = DIRECTION ( 'NONE',  ( 0.0000000000000000000, 1.000000000000000000, 0.0000000000000000000 ) ) ;
#55 = CONICAL_SURFACE ( 'NONE', #244, 1.499999999999997558, 0.1745329251994263142 ) ;
#56 = FACE_OUTER_BOUND ( 'NONE', #162, .T. ) ;
#57 = DIRECTION ( 'NONE',  ( 4.275831445896958607E-31, 1.000000000000000000, 1.224646799147353207E-16 ) ) ;
#58 = MANIFOLD_SOLID_BREP ( 'Corps-Déplacer/Copier1[1]', #250 ) ;
#59 = CC_DESIGN_PERSON_AND_ORGANIZATION_ASSIGNMENT ( #252, #256, ( #209 ) ) ;
#60 = CARTESIAN_POINT ( 'NONE',  ( 2.094888803305880013E-14, 4.874219293651026278E-33, 6.000000000000000000 ) ) ;
#61 = MANIFOLD_SOLID_BREP ( 'Corps-Déplacer/Copier1[2]', #84 ) ;
#62 = DIRECTION ( 'NONE',  ( -4.275831445896958607E-31, -1.000000000000000000, -1.224646799147353207E-16 ) ) ;
#63 = EDGE_LOOP ( 'NONE', ( #271 ) ) ;
#64 = PERSON_AND_ORGANIZATION_ROLE ( 'creator' ) ;
#65 = APPROVAL_PERSON_ORGANIZATION ( #25, #194, #208 ) ;
#66 = ORIENTED_EDGE ( 'NONE', *, *, #287, .F. ) ;
#67 = CIRCLE ( 'NONE', #41, 0.5056624327025946997 ) ;
#68 = PERSON_AND_ORGANIZATION ( #75, #199 ) ;
#69 = ADVANCED_FACE ( 'NONE', ( #83 ), #97, .F. ) ;
#70 = EDGE_LOOP ( 'NONE', ( #229 ) ) ;
#71 = APPROVAL_DATE_TIME ( #254, #194 ) ;
#72 = EDGE_CURVE ( 'NONE', #85, #85, #189, .T. ) ;
#73 = ADVANCED_FACE ( 'NONE', ( #258, #302 ), #215, .T. ) ;
#74 = EDGE_LOOP ( 'NONE', ( #26 ) ) ;
#75 = PERSON ( 'UNSPECIFIED', 'UNSPECIFIED', 'UNSPECIFIED', ('UNSPECIFIED'), ('UNSPECIFIED'), ('UNSPECIFIED') ) ;
#76 = ADVANCED_FACE ( 'NONE', ( #239 ), #100, .F. ) ;
#77 = AXIS2_PLACEMENT_3D ( 'NONE', #53, #172, #126 ) ;
#78 = DATE_TIME_ROLE ( 'classification_date' ) ;
#79 = CARTESIAN_POINT ( 'NONE',  ( 6.431627401956048084E-14, -2.255911215531133132E-15, 18.42091301019842220 ) ) ;
#80 = DIRECTION ( 'NONE',  ( 4.275831445896958607E-31, 1.000000000000000000, 1.224646799147353207E-16 ) ) ;
#81 = CC_DESIGN_APPROVAL ( #148, ( #209 ) ) ;
#82 = CARTESIAN_POINT ( 'NONE',  ( 1.326762908760390423E-13, -4.653657836759941941E-15, 38.00000000000000000 ) ) ;
#83 = FACE_OUTER_BOUND ( 'NONE', #70, .T. ) ;
#84 = CLOSED_SHELL ( 'NONE', ( #69, #23, #193, #90 ) ) ;
#85 = VERTEX_POINT ( 'NONE', #177 ) ;
#86 = FACE_OUTER_BOUND ( 'NONE', #299, .T. ) ;
#87 = FACE_BOUND ( 'NONE', #22, .T. ) ;
#88 = COORDINATED_UNIVERSAL_TIME_OFFSET ( 1, 0, .AHEAD. ) ;
#89 = FACE_BOUND ( 'NONE', #137, .T. ) ;
#90 = ADVANCED_FACE ( 'NONE', ( #171 ), #197, .T. ) ;
#91 = APPROVAL_STATUS ( 'not_yet_approved' ) ;
#92 = AXIS2_PLACEMENT_3D ( 'NONE', #6, #152, #54 ) ;
#93 = EDGE_LOOP ( 'NONE', ( #47 ) ) ;
#94 = ORIENTED_EDGE ( 'NONE', *, *, #259, .T. ) ;
#95 = PERSON_AND_ORGANIZATION ( #75, #199 ) ;
#96 = EDGE_CURVE ( 'NONE', #154, #154, #140, .T. ) ;
#97 = PLANE ( 'NONE',  #276 ) ;
#98 = AXIS2_PLACEMENT_3D ( 'NONE', #217, #240, #282 ) ;
#99 = CARTESIAN_POINT ( 'NONE',  ( 0.0000000000000000000, 0.0000000000000000000, 0.0000000000000000000 ) ) ;
#100 = PLANE ( 'NONE',  #257 ) ;
#101 = DIRECTION ( 'NONE',  ( 2.962969145211135349E-31, 1.000000000000000000, 8.340016711426966382E-17 ) ) ;
#102 = AXIS2_PLACEMENT_3D ( 'NONE', #267, #269, #268 ) ;
#103 = DIRECTION ( 'NONE',  ( 3.491481338843133355E-15, -1.224646799147353207E-16, 1.000000000000000000 ) ) ;
#104 = CARTESIAN_POINT ( 'NONE',  ( 4.538925740496073362E-14, -1.592040838891559095E-15, 13.00000000000000000 ) ) ;
#105 = CC_DESIGN_APPROVAL ( #194, ( #30 ) ) ;
#106 = FACE_OUTER_BOUND ( 'NONE', #110, .T. ) ;
#107 = EDGE_CURVE ( 'NONE', #243, #243, #289, .T. ) ;
#108 = CYLINDRICAL_SURFACE ( 'NONE', #223, 0.5749999999999995115 ) ;
#109 = DIRECTION ( 'NONE',  ( 0.0000000000000000000, -1.000000000000000000, 0.0000000000000000000 ) ) ;
#110 = EDGE_LOOP ( 'NONE', ( #66 ) ) ;
#111 = DATE_AND_TIME ( #234, #286 ) ;
#112 = DIRECTION ( 'NONE',  ( 4.275831445896958607E-31, 1.000000000000000000, 1.224646799147353207E-16 ) ) ;
#113 = APPLICATION_PROTOCOL_DEFINITION ( 'international standard', 'config_control_design', 1994, #170 ) ;
#114 = DIRECTION ( 'NONE',  ( 0.0000000000000000000, 1.000000000000000000, 0.0000000000000000000 ) ) ;
#115 = DATE_TIME_ROLE ( 'creation_date' ) ;
#116 = SECURITY_CLASSIFICATION ( '', '', #44 ) ;
#117 = ORIENTED_EDGE ( 'NONE', *, *, #10, .F. ) ;
#118 = APPROVAL_DATE_TIME ( #166, #222 ) ;
#119 = EDGE_LOOP ( 'NONE', ( #213 ) ) ;
#120 = PRODUCT ( '200779', '200779', '', ( #165 ) ) ;
#121 = DIRECTION ( 'NONE',  ( 0.0000000000000000000, 1.000000000000000000, 0.0000000000000000000 ) ) ;
#122 = FACE_OUTER_BOUND ( 'NONE', #293, .T. ) ;
#123 = CC_DESIGN_PERSON_AND_ORGANIZATION_ASSIGNMENT ( #68, #142, ( #209 ) ) ;
#124 = CARTESIAN_POINT ( 'NONE',  ( 2.094888803305880013E-14, -7.347880794884119736E-16, 6.000000000000000000 ) ) ;
#125 = CONICAL_SURFACE ( 'NONE', #98, 1.200000000000003286, 0.7853981633974453924 ) ;
#126 = DIRECTION ( 'NONE',  ( 0.0000000000000000000, 1.000000000000000000, 0.0000000000000000000 ) ) ;
#127 = CARTESIAN_POINT ( 'NONE',  ( 4.660183614865710380E-14, 0.6053844939755785859, 13.34729635533384950 ) ) ;
#128 = PLANE ( 'NONE',  #262 ) ;
#129 = CARTESIAN_POINT ( 'NONE',  ( 1.326762908760390423E-13, 1.199999999999998845, 38.00000000000000000 ) ) ;
#130 = TOROIDAL_SURFACE ( 'NONE', #102, 2.575000000000000178, 2.000000000000000888 ) ;
#131 = CARTESIAN_POINT ( 'NONE',  ( 2.094888803305880013E-14, -7.347880794884119736E-16, 6.000000000000000000 ) ) ;
#132 = DATE_AND_TIME ( #300, #181 ) ;
#133 = EDGE_CURVE ( 'NONE', #203, #203, #228, .T. ) ;
#134 = AXIS2_PLACEMENT_3D ( 'NONE', #280, #139, #301 ) ;
#135 = DIRECTION ( 'NONE',  ( -3.491481338843133355E-15, 1.224646799147353207E-16, -1.000000000000000000 ) ) ;
#136 = ADVANCED_BREP_SHAPE_REPRESENTATION ( '200779', ( #58, #61, #134 ), #173 ) ;
#137 = EDGE_LOOP ( 'NONE', ( #117 ) ) ;
#138 = APPROVAL_DATE_TIME ( #132, #148 ) ;
#139 = DIRECTION ( 'NONE',  ( 0.0000000000000000000, 0.0000000000000000000, 1.000000000000000000 ) ) ;
#140 = CIRCLE ( 'NONE', #77, 0.5749999999999990674 ) ;
#141 = ORIENTED_EDGE ( 'NONE', *, *, #183, .T. ) ;
#142 = PERSON_AND_ORGANIZATION_ROLE ( 'creator' ) ;
#143 = CARTESIAN_POINT ( 'NONE',  ( 8.728703347107831416E-16, -3.061616997868382402E-17, 0.2499999999999999445 ) ) ;
#144 = DIRECTION ( 'NONE',  ( 0.0000000000000000000, 1.000000000000000000, 0.0000000000000000000 ) ) ;
#145 = DIRECTION ( 'NONE',  ( -3.491481338843133355E-15, 1.224646799147353207E-16, -1.000000000000000000 ) ) ;
#146 = AXIS2_PLACEMENT_3D ( 'NONE', #264, #34, #4 ) ;
#147 = CONICAL_SURFACE ( 'NONE', #11, 0.6499999999999992450, 0.5235987755982929315 ) ;
#148 = APPROVAL ( #91, 'UNSPECIFIED' ) ;
#149 = DIRECTION ( 'NONE',  ( -3.491481338843133355E-15, 1.224646799147353207E-16, -1.000000000000000000 ) ) ;
#150 = DIRECTION ( 'NONE',  ( 3.491481338843133355E-15, -1.224646799147353207E-16, 1.000000000000000000 ) ) ;
#151 = AXIS2_PLACEMENT_3D ( 'NONE', #241, #226, #224 ) ;
#152 = DIRECTION ( 'NONE',  ( -3.491481338843133355E-15, 1.224646799147353207E-16, -1.000000000000000000 ) ) ;
#153 = CARTESIAN_POINT ( 'NONE',  ( 0.0000000000000000000, 0.0000000000000000000, 0.0000000000000000000 ) ) ;
#154 = VERTEX_POINT ( 'NONE', #158 ) ;
#155 = CARTESIAN_POINT ( 'NONE',  ( -9.463679131915806782E-32, 0.5056624327025946997, -2.710505431213761085E-17 ) ) ;
#156 = LOCAL_TIME ( 11, 40, 7.000000000000000000, #21 ) ;
#157 = CARTESIAN_POINT ( 'NONE',  ( 0.0000000000000000000, 0.0000000000000000000, 0.0000000000000000000 ) ) ;
#158 = CARTESIAN_POINT ( 'NONE',  ( 2.140244476350043209E-14, 0.5749999999999984013, 6.129903810567669531 ) ) ;
#159 = ORIENTED_EDGE ( 'NONE', *, *, #107, .F. ) ;
#160 = CIRCLE ( 'NONE', #48, 1.499999999999997558 ) ;
#161 = CIRCLE ( 'NONE', #92, 0.6053844939755802512 ) ;
#162 = EDGE_LOOP ( 'NONE', ( #277 ) ) ;
#163 = COORDINATED_UNIVERSAL_TIME_OFFSET ( 1, 0, .AHEAD. ) ;
#164 = EDGE_LOOP ( 'NONE', ( #141 ) ) ;
#165 = MECHANICAL_CONTEXT ( 'NONE', #170, 'mechanical' ) ;
#166 = DATE_AND_TIME ( #298, #156 ) ;
#167 = AXIS2_PLACEMENT_3D ( 'NONE', #284, #149, #101 ) ;
#168 = COORDINATED_UNIVERSAL_TIME_OFFSET ( 1, 0, .AHEAD. ) ;
#169 = DIRECTION ( 'NONE',  ( -3.491481338843133355E-15, 1.224646799147353207E-16, -1.000000000000000000 ) ) ;
#170 = APPLICATION_CONTEXT ( 'configuration controlled 3d designs of mechanical parts and assemblies' ) ;
#171 = FACE_OUTER_BOUND ( 'NONE', #210, .T. ) ;
#172 = DIRECTION ( 'NONE',  ( -3.491481338843133355E-15, 1.224646799147353207E-16, -1.000000000000000000 ) ) ;
#173 =( GEOMETRIC_REPRESENTATION_CONTEXT ( 3 ) GLOBAL_UNCERTAINTY_ASSIGNED_CONTEXT ( ( #278 ) ) GLOBAL_UNIT_ASSIGNED_CONTEXT ( ( #180, #174, #14 ) ) REPRESENTATION_CONTEXT ( 'NONE', 'WORKASPACE' ) );
#174 =( NAMED_UNIT ( * ) PLANE_ANGLE_UNIT ( ) SI_UNIT ( $, .RADIAN. ) );
#175 = CIRCLE ( 'NONE', #31, 0.6500000000000000222 ) ;
#176 = EDGE_CURVE ( 'NONE', #247, #247, #161, .T. ) ;
#177 = CARTESIAN_POINT ( 'NONE',  ( 2.094888803305880013E-14, 0.6499999999999992450, 6.000000000000000000 ) ) ;
#178 = DIRECTION ( 'NONE',  ( -3.491481338843133355E-15, 1.224646799147353207E-16, -1.000000000000000000 ) ) ;
#179 = ADVANCED_FACE ( 'NONE', ( #122, #219 ), #125, .T. ) ;
#180 =( LENGTH_UNIT ( ) NAMED_UNIT ( * ) SI_UNIT ( .MILLI., .METRE. ) );
#181 = LOCAL_TIME ( 11, 40, 7.000000000000000000, #163 ) ;
#182 = FACE_OUTER_BOUND ( 'NONE', #74, .T. ) ;
#183 = EDGE_CURVE ( 'NONE', #8, #8, #160, .T. ) ;
#184 = ORIENTED_EDGE ( 'NONE', *, *, #176, .F. ) ;
#185 = CALENDAR_DATE ( 2021, 1, 12 ) ;
#186 = ORIENTED_EDGE ( 'NONE', *, *, #133, .T. ) ;
#187 = APPROVAL_ROLE ( '' ) ;
#188 = AXIS2_PLACEMENT_3D ( 'NONE', #124, #169, #144 ) ;
#189 = CIRCLE ( 'NONE', #188, 0.6500000000000000222 ) ;
#190 = ORIENTED_EDGE ( 'NONE', *, *, #96, .T. ) ;
#191 = ORIENTED_EDGE ( 'NONE', *, *, #72, .T. ) ;
#192 = CIRCLE ( 'NONE', #151, 1.500000000000003331 ) ;
#193 = ADVANCED_FACE ( 'NONE', ( #261, #29 ), #52, .T. ) ;
#194 = APPROVAL ( #207, 'UNSPECIFIED' ) ;
#195 = CARTESIAN_POINT ( 'NONE',  ( 1.326762908760390423E-13, 8.998558695971103225E-33, 38.00000000000000000 ) ) ;
#196 = CC_DESIGN_SECURITY_CLASSIFICATION ( #116, ( #209 ) ) ;
#197 = PLANE ( 'NONE',  #146 ) ;
#198 = CARTESIAN_POINT ( 'NONE',  ( 6.431627401956048084E-14, 1.499999999999995559, 18.42091301019842220 ) ) ;
#199 = ORGANIZATION ( 'UNSPECIFIED', 'UNSPECIFIED', '' ) ;
#200 = DIRECTION ( 'NONE',  ( 4.275831445896958607E-31, 1.000000000000000000, 1.224646799147353207E-16 ) ) ;
#201 = ADVANCED_FACE ( 'NONE', ( #106, #182 ), #130, .F. ) ;
#202 = VERTEX_POINT ( 'NONE', #288 ) ;
#203 = VERTEX_POINT ( 'NONE', #129 ) ;
#204 = FACE_OUTER_BOUND ( 'NONE', #93, .T. ) ;
#205 = PERSON_AND_ORGANIZATION_ROLE ( 'classification_officer' ) ;
#206 = DIRECTION ( 'NONE',  ( -3.491481338843133355E-15, 1.224646799147353207E-16, -1.000000000000000000 ) ) ;
#207 = APPROVAL_STATUS ( 'not_yet_approved' ) ;
#208 = APPROVAL_ROLE ( '' ) ;
#209 = PRODUCT_DEFINITION_FORMATION_WITH_SPECIFIED_SOURCE ( 'ANY', '', #120, .NOT_KNOWN. ) ;
#210 = EDGE_LOOP ( 'NONE', ( #43 ) ) ;
#211 = SHAPE_DEFINITION_REPRESENTATION ( #235, #136 ) ;
#212 = ADVANCED_FACE ( 'NONE', ( #56, #35 ), #108, .T. ) ;
#213 = ORIENTED_EDGE ( 'NONE', *, *, #287, .T. ) ;
#214 = ADVANCED_FACE ( 'NONE', ( #87, #225 ), #55, .T. ) ;
#215 = CONICAL_SURFACE ( 'NONE', #249, 0.5749999999999990674, 0.5235987755982923764 ) ;
#216 = DIRECTION ( 'NONE',  ( -3.491481338843133355E-15, 1.224646799147353207E-16, -1.000000000000000000 ) ) ;
#217 = CARTESIAN_POINT ( 'NONE',  ( 1.326762908760390423E-13, -4.653657836759941941E-15, 38.00000000000000000 ) ) ;
#218 = APPROVAL_PERSON_ORGANIZATION ( #49, #222, #232 ) ;
#219 = FACE_BOUND ( 'NONE', #246, .T. ) ;
#220 = VERTEX_POINT ( 'NONE', #155 ) ;
#221 = DIRECTION ( 'NONE',  ( -3.491481338843133355E-15, 1.224646799147353207E-16, -1.000000000000000000 ) ) ;
#222 = APPROVAL ( #294, 'UNSPECIFIED' ) ;
#223 = AXIS2_PLACEMENT_3D ( 'NONE', #153, #9, #57 ) ;
#224 = DIRECTION ( 'NONE',  ( 0.0000000000000000000, 1.000000000000000000, 0.0000000000000000000 ) ) ;
#225 = FACE_OUTER_BOUND ( 'NONE', #164, .T. ) ;
#226 = DIRECTION ( 'NONE',  ( -3.491481338843133355E-15, 1.224646799147353207E-16, -1.000000000000000000 ) ) ;
#227 = EDGE_LOOP ( 'NONE', ( #20 ) ) ;
#228 = CIRCLE ( 'NONE', #51, 1.200000000000003286 ) ;
#229 = ORIENTED_EDGE ( 'NONE', *, *, #10, .T. ) ;
#230 = PERSON_AND_ORGANIZATION_ROLE ( 'design_owner' ) ;
#231 = FACE_OUTER_BOUND ( 'NONE', #227, .T. ) ;
#232 = APPROVAL_ROLE ( '' ) ;
#233 = ORIENTED_EDGE ( 'NONE', *, *, #7, .F. ) ;
#234 = CALENDAR_DATE ( 2021, 1, 12 ) ;
#235 = PRODUCT_DEFINITION_SHAPE ( 'NONE', 'NONE',  #30 ) ;
#236 = DESIGN_CONTEXT ( 'detailed design', #260, 'design' ) ;
#237 = DIRECTION ( 'NONE',  ( 0.0000000000000000000, 1.000000000000000000, 0.0000000000000000000 ) ) ;
#238 = AXIS2_PLACEMENT_3D ( 'NONE', #104, #178, #245 ) ;
#239 = FACE_OUTER_BOUND ( 'NONE', #63, .T. ) ;
#240 = DIRECTION ( 'NONE',  ( -3.491481338843133355E-15, 1.224646799147353207E-16, -1.000000000000000000 ) ) ;
#241 = CARTESIAN_POINT ( 'NONE',  ( 1.316288464743861212E-13, -4.616918432785521081E-15, 37.69999999999999574 ) ) ;
#242 = ADVANCED_FACE ( 'NONE', ( #204 ), #128, .F. ) ;
#243 = VERTEX_POINT ( 'NONE', #36 ) ;
#244 = AXIS2_PLACEMENT_3D ( 'NONE', #292, #103, #109 ) ;
#245 = DIRECTION ( 'NONE',  ( 0.0000000000000000000, 1.000000000000000000, 0.0000000000000000000 ) ) ;
#246 = EDGE_LOOP ( 'NONE', ( #186 ) ) ;
#247 = VERTEX_POINT ( 'NONE', #127 ) ;
#248 = CARTESIAN_POINT ( 'NONE',  ( -3.108495243950089843E-31, 1.090313360211054575E-32, -8.903084227796725673E-17 ) ) ;
#249 = AXIS2_PLACEMENT_3D ( 'NONE', #28, #216, #121 ) ;
#250 = CLOSED_SHELL ( 'NONE', ( #242, #73, #212, #201, #214, #2, #179, #76 ) ) ;
#251 = DIRECTION ( 'NONE',  ( -3.491481338843133355E-15, 1.224646799147353207E-16, -1.000000000000000000 ) ) ;
#252 = PERSON_AND_ORGANIZATION ( #75, #199 ) ;
#253 = EDGE_LOOP ( 'NONE', ( #191 ) ) ;
#254 = DATE_AND_TIME ( #185, #37 ) ;
#255 = EDGE_LOOP ( 'NONE', ( #190 ) ) ;
#256 = PERSON_AND_ORGANIZATION_ROLE ( 'design_supplier' ) ;
#257 = AXIS2_PLACEMENT_3D ( 'NONE', #195, #283, #80 ) ;
#258 = FACE_OUTER_BOUND ( 'NONE', #297, .T. ) ;
#259 = EDGE_CURVE ( 'NONE', #12, #12, #192, .T. ) ;
#260 = APPLICATION_CONTEXT ( 'configuration controlled 3d designs of mechanical parts and assemblies' ) ;
#261 = FACE_OUTER_BOUND ( 'NONE', #45, .T. ) ;
#262 = AXIS2_PLACEMENT_3D ( 'NONE', #60, #270, #62 ) ;
#263 = DIRECTION ( 'NONE',  ( -3.491481338843133355E-15, 1.224646799147353207E-16, -1.000000000000000000 ) ) ;
#264 = CARTESIAN_POINT ( 'NONE',  ( 2.094888803305880013E-14, 4.874219293651026278E-33, 6.000000000000000000 ) ) ;
#265 = CIRCLE ( 'NONE', #238, 0.5749999999999998446 ) ;
#266 = CC_DESIGN_PERSON_AND_ORGANIZATION_ASSIGNMENT ( #95, #205, ( #116 ) ) ;
#267 = CARTESIAN_POINT ( 'NONE',  ( 4.538925740496073362E-14, -1.734723475976807094E-15, 13.00000000000000000 ) ) ;
#268 = DIRECTION ( 'NONE',  ( 4.275831445896958607E-31, 1.000000000000000000, 1.224646799147353207E-16 ) ) ;
#269 = DIRECTION ( 'NONE',  ( -3.491481338843133355E-15, 1.224646799147353207E-16, -1.000000000000000000 ) ) ;
#270 = DIRECTION ( 'NONE',  ( 3.491481338843133355E-15, -1.224646799147353207E-16, 1.000000000000000000 ) ) ;
#271 = ORIENTED_EDGE ( 'NONE', *, *, #133, .F. ) ;
#272 = COORDINATED_UNIVERSAL_TIME_OFFSET ( 1, 0, .AHEAD. ) ;
#273 = LOCAL_TIME ( 11, 40, 7.000000000000000000, #272 ) ;
#274 = CC_DESIGN_DATE_AND_TIME_ASSIGNMENT ( #111, #78, ( #116 ) ) ;
#275 = CALENDAR_DATE ( 2021, 1, 12 ) ;
#276 = AXIS2_PLACEMENT_3D ( 'NONE', #281, #150, #50 ) ;
#277 = ORIENTED_EDGE ( 'NONE', *, *, #96, .F. ) ;
#278 = UNCERTAINTY_MEASURE_WITH_UNIT (LENGTH_MEASURE( 1.000000000000000082E-05 ), #180, 'distance_accuracy_value', 'NONE');
#279 = CYLINDRICAL_SURFACE ( 'NONE', #1, 1.500000000000000444 ) ;
#280 = CARTESIAN_POINT ( 'NONE',  ( 0.0000000000000000000, 0.0000000000000000000, 0.0000000000000000000 ) ) ;
#281 = CARTESIAN_POINT ( 'NONE',  ( -1.554247621975044922E-31, 5.451566801055272877E-33, -4.451542113898362837E-17 ) ) ;
#282 = DIRECTION ( 'NONE',  ( 0.0000000000000000000, 1.000000000000000000, 0.0000000000000000000 ) ) ;
#283 = DIRECTION ( 'NONE',  ( -3.491481338843133355E-15, 1.224646799147353207E-16, -1.000000000000000000 ) ) ;
#284 = CARTESIAN_POINT ( 'NONE',  ( 8.728703347107831416E-16, -3.061616997868382402E-17, 0.2499999999999999445 ) ) ;
#285 = PRODUCT_RELATED_PRODUCT_CATEGORY ( 'detail', '', ( #120 ) ) ;
#286 = LOCAL_TIME ( 11, 40, 7.000000000000000000, #168 ) ;
#287 = EDGE_CURVE ( 'NONE', #202, #202, #265, .T. ) ;
#288 = CARTESIAN_POINT ( 'NONE',  ( 4.538925740496073362E-14, 0.5749999999999982903, 13.00000000000000000 ) ) ;
#289 = CIRCLE ( 'NONE', #167, 0.6499999999999992450 ) ;
#290 = CARTESIAN_POINT ( 'NONE',  ( 2.094888803305880013E-14, 0.6499999999999992450, 6.000000000000000000 ) ) ;
#291 = VERTEX_POINT ( 'NONE', #290 ) ;
#292 = CARTESIAN_POINT ( 'NONE',  ( 6.431627401956048084E-14, -2.255911215531133132E-15, 18.42091301019842220 ) ) ;
#293 = EDGE_LOOP ( 'NONE', ( #18 ) ) ;
#294 = APPROVAL_STATUS ( 'not_yet_approved' ) ;
#295 = FACE_OUTER_BOUND ( 'NONE', #15, .T. ) ;
#296 = DATE_AND_TIME ( #275, #273 ) ;
#297 = EDGE_LOOP ( 'NONE', ( #233 ) ) ;
#298 = CALENDAR_DATE ( 2021, 1, 12 ) ;
#299 = EDGE_LOOP ( 'NONE', ( #94 ) ) ;
#300 = CALENDAR_DATE ( 2021, 1, 12 ) ;
#301 = DIRECTION ( 'NONE',  ( 1.000000000000000000, 0.0000000000000000000, 0.0000000000000000000 ) ) ;
#302 = FACE_BOUND ( 'NONE', #255, .T. ) ;
#303 = DIRECTION ( 'NONE',  ( 0.0000000000000000000, 1.000000000000000000, 0.0000000000000000000 ) ) ;
ENDSEC;
END-ISO-10303-21;
