ISO-10303-21;
HEADER;
FILE_DESCRIPTION (( 'STEP AP203' ),
    '1' );
FILE_NAME ('200778.step',
    '2021-12-01T10:40:06',
    ( '' ),
    ( '' ),
    'SwSTEP 2.0',
    'SolidWorks 2019',
    '' );
FILE_SCHEMA (( 'CONFIG_CONTROL_DESIGN' ));
ENDSEC;

DATA;
#1 = CARTESIAN_POINT ( 'NONE',  ( 2.094888803305880013E-14, 4.686749320818295445E-33, 6.000000000000000000 ) ) ;
#2 = LOCAL_TIME ( 11, 40, 6.000000000000000000, #90 ) ;
#3 = CARTESIAN_POINT ( 'NONE',  ( -1.500799728901333793E-31, 5.264096828222543413E-33, -4.298461264004946490E-17 ) ) ;
#4 = APPLICATION_PROTOCOL_DEFINITION ( 'international standard', 'config_control_design', 1994, #106 ) ;
#5 = ADVANCED_FACE ( 'NONE', ( #44, #182 ), #155, .T. ) ;
#6 = CIRCLE ( 'NONE', #91, 0.4949999999999994404 ) ;
#7 = VERTEX_POINT ( 'NONE', #126 ) ;
#8 = ADVANCED_FACE ( 'NONE', ( #66 ), #94, .F. ) ;
#9 = ORIENTED_EDGE ( 'NONE', *, *, #288, .T. ) ;
#10 = PERSON_AND_ORGANIZATION ( #200, #16 ) ;
#11 = EDGE_LOOP ( 'NONE', ( #111 ) ) ;
#12 = APPROVAL_DATE_TIME ( #199, #108 ) ;
#13 = EDGE_LOOP ( 'NONE', ( #180 ) ) ;
#14 = DATE_AND_TIME ( #298, #302 ) ;
#15 = ORIENTED_EDGE ( 'NONE', *, *, #80, .T. ) ;
#16 = ORGANIZATION ( 'UNSPECIFIED', 'UNSPECIFIED', '' ) ;
#17 = PERSON_AND_ORGANIZATION_ROLE ( 'design_supplier' ) ;
#18 = EDGE_LOOP ( 'NONE', ( #70 ) ) ;
#19 = DATE_AND_TIME ( #96, #2 ) ;
#20 = CC_DESIGN_PERSON_AND_ORGANIZATION_ASSIGNMENT ( #43, #114, ( #55 ) ) ;
#21 = DIRECTION ( 'NONE',  ( 0.0000000000000000000, 1.000000000000000000, 0.0000000000000000000 ) ) ;
#22 = DIRECTION ( 'NONE',  ( -3.491481338843133355E-15, 1.224646799147353207E-16, -1.000000000000000000 ) ) ;
#23 = CONICAL_SURFACE ( 'NONE', #133, 0.6249999999999993339, 0.5235987755982922653 ) ;
#24 = FACE_OUTER_BOUND ( 'NONE', #18, .T. ) ;
#25 = CLOSED_SHELL ( 'NONE', ( #220, #230, #300, #249 ) ) ;
#26 = CARTESIAN_POINT ( 'NONE',  ( 4.660183614865709118E-14, -1.634572375883072808E-15, 13.34729635533384595 ) ) ;
#27 = PRODUCT ( '200778', '200778', '', ( #105 ) ) ;
#28 = CIRCLE ( 'NONE', #72, 1.200000000000003286 ) ;
#29 = CARTESIAN_POINT ( 'NONE',  ( 1.326762908760390423E-13, -4.653657836759941941E-15, 38.00000000000000000 ) ) ;
#30 = ADVANCED_FACE ( 'NONE', ( #224, #61 ), #186, .T. ) ;
#31 = CARTESIAN_POINT ( 'NONE',  ( -9.463679131915811161E-32, 0.4806624327025950660, -2.710505431213761085E-17 ) ) ;
#32 = CARTESIAN_POINT ( 'NONE',  ( 8.728703347107833388E-16, 0.6249999999999993339, 0.2500000000000000000 ) ) ;
#33 = ADVANCED_FACE ( 'NONE', ( #88 ), #181, .F. ) ;
#34 = CARTESIAN_POINT ( 'NONE',  ( 4.538925740496073362E-14, -1.734723475976807094E-15, 13.00000000000000000 ) ) ;
#35 = ORIENTED_EDGE ( 'NONE', *, *, #75, .T. ) ;
#36 = APPROVAL_ROLE ( '' ) ;
#37 = ORIENTED_EDGE ( 'NONE', *, *, #75, .F. ) ;
#38 = CLOSED_SHELL ( 'NONE', ( #33, #170, #30, #283, #71, #5, #277, #8 ) ) ;
#39 = EDGE_CURVE ( 'NONE', #242, #242, #245, .T. ) ;
#40 = EDGE_LOOP ( 'NONE', ( #109 ) ) ;
#41 = APPROVAL_DATE_TIME ( #19, #45 ) ;
#42 = DIRECTION ( 'NONE',  ( -4.275831445896958607E-31, -1.000000000000000000, -1.224646799147353207E-16 ) ) ;
#43 = PERSON_AND_ORGANIZATION ( #200, #16 ) ;
#44 = FACE_OUTER_BOUND ( 'NONE', #92, .T. ) ;
#45 = APPROVAL ( #223, 'UNSPECIFIED' ) ;
#46 = CC_DESIGN_APPROVAL ( #137, ( #55 ) ) ;
#47 = DATE_AND_TIME ( #68, #178 ) ;
#48 = CARTESIAN_POINT ( 'NONE',  ( 2.094888803305880013E-14, -7.347880794884119736E-16, 6.000000000000000000 ) ) ;
#49 = CIRCLE ( 'NONE', #233, 0.5253844939755812904 ) ;
#50 = CARTESIAN_POINT ( 'NONE',  ( 8.728703347107831416E-16, -3.061616997868382402E-17, 0.2499999999999999445 ) ) ;
#51 = FACE_OUTER_BOUND ( 'NONE', #297, .T. ) ;
#52 = PRODUCT_DEFINITION_SHAPE ( 'NONE', 'NONE',  #189 ) ;
#53 = APPLICATION_CONTEXT ( 'configuration controlled 3d designs of mechanical parts and assemblies' ) ;
#54 = FACE_OUTER_BOUND ( 'NONE', #40, .T. ) ;
#55 = PRODUCT_DEFINITION_FORMATION_WITH_SPECIFIED_SOURCE ( 'ANY', '', #27, .NOT_KNOWN. ) ;
#56 = EDGE_LOOP ( 'NONE', ( #113 ) ) ;
#57 = DIRECTION ( 'NONE',  ( -3.491481338843133355E-15, 1.224646799147353207E-16, -1.000000000000000000 ) ) ;
#58 = CARTESIAN_POINT ( 'NONE',  ( 4.538925740496072731E-14, -1.592040838891558898E-15, 12.99999999999999822 ) ) ;
#59 =( LENGTH_UNIT ( ) NAMED_UNIT ( * ) SI_UNIT ( .MILLI., .METRE. ) );
#60 = EDGE_CURVE ( 'NONE', #176, #176, #271, .T. ) ;
#61 = FACE_OUTER_BOUND ( 'NONE', #163, .T. ) ;
#62 = DIRECTION ( 'NONE',  ( -3.491481338843133355E-15, 1.224646799147353207E-16, -1.000000000000000000 ) ) ;
#63 = DIRECTION ( 'NONE',  ( -3.491481338843133355E-15, 1.224646799147353207E-16, -1.000000000000000000 ) ) ;
#64 = EDGE_CURVE ( 'NONE', #238, #238, #6, .T. ) ;
#65 = CIRCLE ( 'NONE', #168, 0.4950000000000005507 ) ;
#66 = FACE_OUTER_BOUND ( 'NONE', #268, .T. ) ;
#67 = AXIS2_PLACEMENT_3D ( 'NONE', #69, #240, #162 ) ;
#68 = CALENDAR_DATE ( 2021, 1, 12 ) ;
#69 = CARTESIAN_POINT ( 'NONE',  ( 0.0000000000000000000, 0.0000000000000000000, 0.0000000000000000000 ) ) ;
#70 = ORIENTED_EDGE ( 'NONE', *, *, #80, .F. ) ;
#71 = ADVANCED_FACE ( 'NONE', ( #301, #231 ), #146, .T. ) ;
#72 = AXIS2_PLACEMENT_3D ( 'NONE', #276, #97, #144 ) ;
#73 = PERSON_AND_ORGANIZATION ( #200, #16 ) ;
#74 = FACE_OUTER_BOUND ( 'NONE', #13, .T. ) ;
#75 = EDGE_CURVE ( 'NONE', #152, #152, #28, .T. ) ;
#76 = DIRECTION ( 'NONE',  ( 4.275831445896958607E-31, 1.000000000000000000, 1.224646799147353454E-16 ) ) ;
#77 = AXIS2_PLACEMENT_3D ( 'NONE', #34, #62, #177 ) ;
#78 = CARTESIAN_POINT ( 'NONE',  ( 2.173505303249095757E-14, -7.623630356952600666E-16, 6.225166604983958685 ) ) ;
#79 = DIRECTION ( 'NONE',  ( -3.491481338843133355E-15, 1.224646799147353207E-16, -1.000000000000000000 ) ) ;
#80 = EDGE_CURVE ( 'NONE', #214, #214, #184, .T. ) ;
#81 = DIRECTION ( 'NONE',  ( 0.0000000000000000000, 1.000000000000000000, 0.0000000000000000000 ) ) ;
#82 = MANIFOLD_SOLID_BREP ( 'Corps-Déplacer/Copier1[2]', #25 ) ;
#83 = CARTESIAN_POINT ( 'NONE',  ( 2.173505303249095757E-14, 0.4949999999999987188, 6.225166604983958685 ) ) ;
#84 = FACE_OUTER_BOUND ( 'NONE', #221, .T. ) ;
#85 = DIRECTION ( 'NONE',  ( 0.0000000000000000000, 0.0000000000000000000, 1.000000000000000000 ) ) ;
#86 = EDGE_LOOP ( 'NONE', ( #35 ) ) ;
#87 = EDGE_CURVE ( 'NONE', #239, #239, #102, .T. ) ;
#88 = FACE_OUTER_BOUND ( 'NONE', #205, .T. ) ;
#89 = ORIENTED_EDGE ( 'NONE', *, *, #64, .T. ) ;
#90 = COORDINATED_UNIVERSAL_TIME_OFFSET ( 1, 0, .AHEAD. ) ;
#91 = AXIS2_PLACEMENT_3D ( 'NONE', #167, #79, #192 ) ;
#92 = EDGE_LOOP ( 'NONE', ( #202 ) ) ;
#93 = DATE_TIME_ROLE ( 'classification_date' ) ;
#94 = PLANE ( 'NONE',  #208 ) ;
#95 = COORDINATED_UNIVERSAL_TIME_OFFSET ( 1, 0, .AHEAD. ) ;
#96 = CALENDAR_DATE ( 2021, 1, 12 ) ;
#97 = DIRECTION ( 'NONE',  ( -3.491481338843133355E-15, 1.224646799147353207E-16, -1.000000000000000000 ) ) ;
#98 = LOCAL_TIME ( 11, 40, 6.000000000000000000, #132 ) ;
#99 = FACE_BOUND ( 'NONE', #86, .T. ) ;
#100 = CARTESIAN_POINT ( 'NONE',  ( 1.316288464743861212E-13, -4.616918432785521081E-15, 37.69999999999999574 ) ) ;
#101 = CARTESIAN_POINT ( 'NONE',  ( 6.590036799080176703E-14, -2.311473752550794145E-15, 18.87461555576785344 ) ) ;
#102 = CIRCLE ( 'NONE', #159, 0.4806624327025950660 ) ;
#103 = CC_DESIGN_PERSON_AND_ORGANIZATION_ASSIGNMENT ( #139, #275, ( #27 ) ) ;
#104 = AXIS2_PLACEMENT_3D ( 'NONE', #188, #273, #21 ) ;
#105 = MECHANICAL_CONTEXT ( 'NONE', #106, 'mechanical' ) ;
#106 = APPLICATION_CONTEXT ( 'configuration controlled 3d designs of mechanical parts and assemblies' ) ;
#107 = DIRECTION ( 'NONE',  ( 1.000000000000000000, 0.0000000000000000000, 0.0000000000000000000 ) ) ;
#108 = APPROVAL ( #142, 'UNSPECIFIED' ) ;
#109 = ORIENTED_EDGE ( 'NONE', *, *, #39, .F. ) ;
#110 = CALENDAR_DATE ( 2021, 1, 12 ) ;
#111 = ORIENTED_EDGE ( 'NONE', *, *, #60, .F. ) ;
#112 = APPROVAL_ROLE ( '' ) ;
#113 = ORIENTED_EDGE ( 'NONE', *, *, #288, .F. ) ;
#114 = PERSON_AND_ORGANIZATION_ROLE ( 'creator' ) ;
#115 = PERSON_AND_ORGANIZATION ( #200, #16 ) ;
#116 = EDGE_LOOP ( 'NONE', ( #201 ) ) ;
#117 = PERSON_AND_ORGANIZATION_ROLE ( 'classification_officer' ) ;
#118 = AXIS2_PLACEMENT_3D ( 'NONE', #101, #255, #281 ) ;
#119 = DIRECTION ( 'NONE',  ( 0.0000000000000000000, -1.000000000000000000, 0.0000000000000000000 ) ) ;
#120 = DIRECTION ( 'NONE',  ( -3.491481338843133355E-15, 1.224646799147353207E-16, -1.000000000000000000 ) ) ;
#121 = DIRECTION ( 'NONE',  ( 3.491481338843133355E-15, -1.224646799147353207E-16, 1.000000000000000000 ) ) ;
#122 = AXIS2_PLACEMENT_3D ( 'NONE', #100, #22, #207 ) ;
#123 = EDGE_CURVE ( 'NONE', #287, #287, #49, .T. ) ;
#124 = PLANE ( 'NONE',  #282 ) ;
#125 = VERTEX_POINT ( 'NONE', #290 ) ;
#126 = CARTESIAN_POINT ( 'NONE',  ( 4.538925740496072731E-14, 0.4949999999999988853, 12.99999999999999822 ) ) ;
#127 = AXIS2_PLACEMENT_3D ( 'NONE', #1, #234, #228 ) ;
#128 = CARTESIAN_POINT ( 'NONE',  ( 0.0000000000000000000, 0.0000000000000000000, 0.0000000000000000000 ) ) ;
#129 = CC_DESIGN_PERSON_AND_ORGANIZATION_ASSIGNMENT ( #136, #299, ( #189 ) ) ;
#130 = CARTESIAN_POINT ( 'NONE',  ( 2.094888803305880013E-14, 0.6249999999999993339, 6.000000000000000000 ) ) ;
#131 = EDGE_LOOP ( 'NONE', ( #89 ) ) ;
#132 = COORDINATED_UNIVERSAL_TIME_OFFSET ( 1, 0, .AHEAD. ) ;
#133 = AXIS2_PLACEMENT_3D ( 'NONE', #50, #258, #145 ) ;
#134 = EDGE_LOOP ( 'NONE', ( #160 ) ) ;
#135 = EDGE_LOOP ( 'NONE', ( #250 ) ) ;
#136 = PERSON_AND_ORGANIZATION ( #200, #16 ) ;
#137 = APPROVAL ( #251, 'UNSPECIFIED' ) ;
#138 = EDGE_LOOP ( 'NONE', ( #157 ) ) ;
#139 = PERSON_AND_ORGANIZATION ( #200, #16 ) ;
#140 = CIRCLE ( 'NONE', #229, 0.6249999999999993339 ) ;
#141 = ORIENTED_EDGE ( 'NONE', *, *, #123, .T. ) ;
#142 = APPROVAL_STATUS ( 'not_yet_approved' ) ;
#143 = CARTESIAN_POINT ( 'NONE',  ( 6.590036799080176703E-14, -2.311473752550794145E-15, 18.87461555576785344 ) ) ;
#144 = DIRECTION ( 'NONE',  ( 0.0000000000000000000, 1.000000000000000000, 0.0000000000000000000 ) ) ;
#145 = DIRECTION ( 'NONE',  ( -3.081487911019580868E-31, -1.000000000000000000, -8.673617379884045333E-17 ) ) ;
#146 = CONICAL_SURFACE ( 'NONE', #158, 1.499999999999997780, 0.1745329251994261754 ) ;
#147 = AXIS2_PLACEMENT_3D ( 'NONE', #48, #253, #149 ) ;
#148 = PLANE ( 'NONE',  #127 ) ;
#149 = DIRECTION ( 'NONE',  ( 0.0000000000000000000, 1.000000000000000000, 0.0000000000000000000 ) ) ;
#150 = CONICAL_SURFACE ( 'NONE', #256, 0.4949999999999994404, 0.5235987755982924874 ) ;
#151 = FACE_BOUND ( 'NONE', #131, .T. ) ;
#152 = VERTEX_POINT ( 'NONE', #154 ) ;
#153 = FACE_OUTER_BOUND ( 'NONE', #222, .T. ) ;
#154 = CARTESIAN_POINT ( 'NONE',  ( 1.326762908760390423E-13, 1.199999999999998845, 38.00000000000000000 ) ) ;
#155 = CYLINDRICAL_SURFACE ( 'NONE', #185, 1.500000000000000444 ) ;
#156 = DIRECTION ( 'NONE',  ( -3.491481338843133355E-15, 1.224646799147353207E-16, -1.000000000000000000 ) ) ;
#157 = ORIENTED_EDGE ( 'NONE', *, *, #64, .F. ) ;
#158 = AXIS2_PLACEMENT_3D ( 'NONE', #143, #121, #119 ) ;
#159 = AXIS2_PLACEMENT_3D ( 'NONE', #169, #280, #76 ) ;
#160 = ORIENTED_EDGE ( 'NONE', *, *, #87, .F. ) ;
#161 = COORDINATED_UNIVERSAL_TIME_OFFSET ( 1, 0, .AHEAD. ) ;
#162 = DIRECTION ( 'NONE',  ( 4.275831445896958607E-31, 1.000000000000000000, 1.224646799147353207E-16 ) ) ;
#163 = EDGE_LOOP ( 'NONE', ( #9 ) ) ;
#164 = CC_DESIGN_APPROVAL ( #108, ( #173 ) ) ;
#165 = CC_DESIGN_DATE_AND_TIME_ASSIGNMENT ( #292, #93, ( #173 ) ) ;
#166 = DATE_TIME_ROLE ( 'creation_date' ) ;
#167 = CARTESIAN_POINT ( 'NONE',  ( 2.173505303249095757E-14, -7.623630356952600666E-16, 6.225166604983958685 ) ) ;
#168 = AXIS2_PLACEMENT_3D ( 'NONE', #58, #286, #81 ) ;
#169 = CARTESIAN_POINT ( 'NONE',  ( -3.001599457802667586E-31, 1.052819365644508683E-32, -8.596922528009892980E-17 ) ) ;
#170 = ADVANCED_FACE ( 'NONE', ( #211, #151 ), #150, .T. ) ;
#171 = DESIGN_CONTEXT ( 'detailed design', #53, 'design' ) ;
#172 = DIRECTION ( 'NONE',  ( 0.0000000000000000000, 1.000000000000000000, 0.0000000000000000000 ) ) ;
#173 = SECURITY_CLASSIFICATION ( '', '', #203 ) ;
#174 = CYLINDRICAL_SURFACE ( 'NONE', #289, 0.6249999999999996669 ) ;
#175 = DIRECTION ( 'NONE',  ( 3.081487911019580868E-31, 1.000000000000000000, 8.673617379884045333E-17 ) ) ;
#176 = VERTEX_POINT ( 'NONE', #130 ) ;
#177 = DIRECTION ( 'NONE',  ( 4.275831445896958607E-31, 1.000000000000000000, 1.224646799147353207E-16 ) ) ;
#178 = LOCAL_TIME ( 11, 40, 6.000000000000000000, #95 ) ;
#179 = ADVANCED_BREP_SHAPE_REPRESENTATION ( '200778', ( #274, #82, #244 ), #204 ) ;
#180 = ORIENTED_EDGE ( 'NONE', *, *, #295, .T. ) ;
#181 = PLANE ( 'NONE',  #232 ) ;
#182 = FACE_OUTER_BOUND ( 'NONE', #293, .T. ) ;
#183 = PERSON_AND_ORGANIZATION ( #200, #16 ) ;
#184 = CIRCLE ( 'NONE', #122, 1.500000000000003331 ) ;
#185 = AXIS2_PLACEMENT_3D ( 'NONE', #272, #63, #218 ) ;
#186 = CYLINDRICAL_SURFACE ( 'NONE', #67, 0.4949999999999999956 ) ;
#187 = SHAPE_DEFINITION_REPRESENTATION ( #52, #179 ) ;
#188 = CARTESIAN_POINT ( 'NONE',  ( 2.094888803305880013E-14, -7.347880794884119736E-16, 6.000000000000000000 ) ) ;
#189 = PRODUCT_DEFINITION ( 'UNKNOWN', '', #55, #171 ) ;
#190 = APPROVAL_ROLE ( '' ) ;
#191 = TOROIDAL_SURFACE ( 'NONE', #77, 2.495000000000000551, 2.000000000000000444 ) ;
#192 = DIRECTION ( 'NONE',  ( 0.0000000000000000000, 1.000000000000000000, 0.0000000000000000000 ) ) ;
#193 = APPROVAL_PERSON_ORGANIZATION ( #73, #45, #112 ) ;
#194 = DIRECTION ( 'NONE',  ( -4.275831445896958607E-31, -1.000000000000000000, -1.224646799147353207E-16 ) ) ;
#195 = DIRECTION ( 'NONE',  ( 0.0000000000000000000, 1.000000000000000000, 0.0000000000000000000 ) ) ;
#196 = CIRCLE ( 'NONE', #118, 1.499999999999997780 ) ;
#197 = DIRECTION ( 'NONE',  ( -3.491481338843133355E-15, 1.224646799147353207E-16, -1.000000000000000000 ) ) ;
#198 = ORIENTED_EDGE ( 'NONE', *, *, #60, .T. ) ;
#199 = DATE_AND_TIME ( #110, #98 ) ;
#200 = PERSON ( 'UNSPECIFIED', 'UNSPECIFIED', 'UNSPECIFIED', ('UNSPECIFIED'), ('UNSPECIFIED'), ('UNSPECIFIED') ) ;
#201 = ORIENTED_EDGE ( 'NONE', *, *, #123, .F. ) ;
#202 = ORIENTED_EDGE ( 'NONE', *, *, #226, .F. ) ;
#203 = SECURITY_CLASSIFICATION_LEVEL ( 'unclassified' ) ;
#204 =( GEOMETRIC_REPRESENTATION_CONTEXT ( 3 ) GLOBAL_UNCERTAINTY_ASSIGNED_CONTEXT ( ( #279 ) ) GLOBAL_UNIT_ASSIGNED_CONTEXT ( ( #59, #215, #262 ) ) REPRESENTATION_CONTEXT ( 'NONE', 'WORKASPACE' ) );
#205 = EDGE_LOOP ( 'NONE', ( #198 ) ) ;
#206 = CARTESIAN_POINT ( 'NONE',  ( 1.326762908760390423E-13, 8.998558695971103225E-33, 38.00000000000000000 ) ) ;
#207 = DIRECTION ( 'NONE',  ( 0.0000000000000000000, 1.000000000000000000, 0.0000000000000000000 ) ) ;
#208 = AXIS2_PLACEMENT_3D ( 'NONE', #206, #291, #265 ) ;
#209 = DIRECTION ( 'NONE',  ( 0.0000000000000000000, 1.000000000000000000, 0.0000000000000000000 ) ) ;
#210 = LOCAL_TIME ( 11, 40, 6.000000000000000000, #227 ) ;
#211 = FACE_OUTER_BOUND ( 'NONE', #11, .T. ) ;
#212 = CC_DESIGN_PERSON_AND_ORGANIZATION_ASSIGNMENT ( #10, #117, ( #173 ) ) ;
#213 = FACE_OUTER_BOUND ( 'NONE', #225, .T. ) ;
#214 = VERTEX_POINT ( 'NONE', #236 ) ;
#215 =( NAMED_UNIT ( * ) PLANE_ANGLE_UNIT ( ) SI_UNIT ( $, .RADIAN. ) );
#216 = CARTESIAN_POINT ( 'NONE',  ( 4.660183614865709118E-14, 0.5253844939755796251, 13.34729635533384595 ) ) ;
#217 = CARTESIAN_POINT ( 'NONE',  ( 8.728703347107831416E-16, -3.061616997868382402E-17, 0.2499999999999999445 ) ) ;
#218 = DIRECTION ( 'NONE',  ( 4.275831445896958607E-31, 1.000000000000000000, 1.224646799147353207E-16 ) ) ;
#219 = APPROVAL_PERSON_ORGANIZATION ( #115, #108, #190 ) ;
#220 = ADVANCED_FACE ( 'NONE', ( #51 ), #124, .F. ) ;
#221 = EDGE_LOOP ( 'NONE', ( #294 ) ) ;
#222 = EDGE_LOOP ( 'NONE', ( #246 ) ) ;
#223 = APPROVAL_STATUS ( 'not_yet_approved' ) ;
#224 = FACE_OUTER_BOUND ( 'NONE', #138, .T. ) ;
#225 = EDGE_LOOP ( 'NONE', ( #141 ) ) ;
#226 = EDGE_CURVE ( 'NONE', #125, #125, #196, .T. ) ;
#227 = COORDINATED_UNIVERSAL_TIME_OFFSET ( 1, 0, .AHEAD. ) ;
#228 = DIRECTION ( 'NONE',  ( -4.275831445896958607E-31, -1.000000000000000000, -1.224646799147353207E-16 ) ) ;
#229 = AXIS2_PLACEMENT_3D ( 'NONE', #217, #156, #175 ) ;
#230 = ADVANCED_FACE ( 'NONE', ( #278, #74 ), #23, .T. ) ;
#231 = FACE_OUTER_BOUND ( 'NONE', #135, .T. ) ;
#232 = AXIS2_PLACEMENT_3D ( 'NONE', #266, #248, #42 ) ;
#233 = AXIS2_PLACEMENT_3D ( 'NONE', #26, #120, #209 ) ;
#234 = DIRECTION ( 'NONE',  ( 3.491481338843133355E-15, -1.224646799147353207E-16, 1.000000000000000000 ) ) ;
#235 = VERTEX_POINT ( 'NONE', #32 ) ;
#236 = CARTESIAN_POINT ( 'NONE',  ( 1.316288464743861212E-13, 1.499999999999998668, 37.69999999999999574 ) ) ;
#237 = AXIS2_PLACEMENT_3D ( 'NONE', #29, #197, #195 ) ;
#238 = VERTEX_POINT ( 'NONE', #83 ) ;
#239 = VERTEX_POINT ( 'NONE', #31 ) ;
#240 = DIRECTION ( 'NONE',  ( -3.491481338843133355E-15, 1.224646799147353207E-16, -1.000000000000000000 ) ) ;
#241 = PRODUCT_RELATED_PRODUCT_CATEGORY ( 'detail', '', ( #27 ) ) ;
#242 = VERTEX_POINT ( 'NONE', #261 ) ;
#243 = ORIENTED_EDGE ( 'NONE', *, *, #87, .T. ) ;
#244 = AXIS2_PLACEMENT_3D ( 'NONE', #284, #85, #107 ) ;
#245 = CIRCLE ( 'NONE', #104, 0.6250000000000001110 ) ;
#246 = ORIENTED_EDGE ( 'NONE', *, *, #39, .T. ) ;
#247 = PERSON_AND_ORGANIZATION ( #200, #16 ) ;
#248 = DIRECTION ( 'NONE',  ( 3.491481338843133355E-15, -1.224646799147353207E-16, 1.000000000000000000 ) ) ;
#249 = ADVANCED_FACE ( 'NONE', ( #54 ), #148, .T. ) ;
#250 = ORIENTED_EDGE ( 'NONE', *, *, #226, .T. ) ;
#251 = APPROVAL_STATUS ( 'not_yet_approved' ) ;
#252 = APPROVAL_PERSON_ORGANIZATION ( #183, #137, #36 ) ;
#253 = DIRECTION ( 'NONE',  ( -3.491481338843133355E-15, 1.224646799147353207E-16, -1.000000000000000000 ) ) ;
#254 = CC_DESIGN_DATE_AND_TIME_ASSIGNMENT ( #14, #166, ( #189 ) ) ;
#255 = DIRECTION ( 'NONE',  ( -3.491481338843133355E-15, 1.224646799147353207E-16, -1.000000000000000000 ) ) ;
#256 = AXIS2_PLACEMENT_3D ( 'NONE', #78, #303, #172 ) ;
#257 = DIRECTION ( 'NONE',  ( 3.491481338843133355E-15, -1.224646799147353207E-16, 1.000000000000000000 ) ) ;
#258 = DIRECTION ( 'NONE',  ( 3.491481338843133355E-15, -1.224646799147353207E-16, 1.000000000000000000 ) ) ;
#259 = CC_DESIGN_SECURITY_CLASSIFICATION ( #173, ( #55 ) ) ;
#260 = FACE_OUTER_BOUND ( 'NONE', #56, .T. ) ;
#261 = CARTESIAN_POINT ( 'NONE',  ( 2.094888803305880013E-14, 0.6249999999999993339, 6.000000000000000000 ) ) ;
#262 =( NAMED_UNIT ( * ) SI_UNIT ( $, .STERADIAN. ) SOLID_ANGLE_UNIT ( ) );
#263 = DIRECTION ( 'NONE',  ( 4.275831445896959482E-31, 1.000000000000000000, 1.224646799147353207E-16 ) ) ;
#264 = CC_DESIGN_PERSON_AND_ORGANIZATION_ASSIGNMENT ( #247, #17, ( #55 ) ) ;
#265 = DIRECTION ( 'NONE',  ( 4.275831445896958607E-31, 1.000000000000000000, 1.224646799147353207E-16 ) ) ;
#266 = CARTESIAN_POINT ( 'NONE',  ( 2.094888803305880013E-14, 4.686749320818295445E-33, 6.000000000000000000 ) ) ;
#267 = APPLICATION_PROTOCOL_DEFINITION ( 'international standard', 'config_control_design', 1994, #53 ) ;
#268 = EDGE_LOOP ( 'NONE', ( #37 ) ) ;
#269 = CC_DESIGN_APPROVAL ( #45, ( #189 ) ) ;
#270 = APPROVAL_DATE_TIME ( #47, #137 ) ;
#271 = CIRCLE ( 'NONE', #147, 0.6250000000000001110 ) ;
#272 = CARTESIAN_POINT ( 'NONE',  ( 0.0000000000000000000, 0.0000000000000000000, 0.0000000000000000000 ) ) ;
#273 = DIRECTION ( 'NONE',  ( -3.491481338843133355E-15, 1.224646799147353207E-16, -1.000000000000000000 ) ) ;
#274 = MANIFOLD_SOLID_BREP ( 'Corps-Déplacer/Copier1[1]', #38 ) ;
#275 = PERSON_AND_ORGANIZATION_ROLE ( 'design_owner' ) ;
#276 = CARTESIAN_POINT ( 'NONE',  ( 1.326762908760390423E-13, -4.653657836759941941E-15, 38.00000000000000000 ) ) ;
#277 = ADVANCED_FACE ( 'NONE', ( #24, #99 ), #285, .T. ) ;
#278 = FACE_BOUND ( 'NONE', #134, .T. ) ;
#279 = UNCERTAINTY_MEASURE_WITH_UNIT (LENGTH_MEASURE( 1.000000000000000082E-05 ), #59, 'distance_accuracy_value', 'NONE');
#280 = DIRECTION ( 'NONE',  ( -3.491481338843133355E-15, 1.224646799147353207E-16, -1.000000000000000000 ) ) ;
#281 = DIRECTION ( 'NONE',  ( 0.0000000000000000000, 1.000000000000000000, 0.0000000000000000000 ) ) ;
#282 = AXIS2_PLACEMENT_3D ( 'NONE', #3, #257, #194 ) ;
#283 = ADVANCED_FACE ( 'NONE', ( #260, #213 ), #191, .F. ) ;
#284 = CARTESIAN_POINT ( 'NONE',  ( 0.0000000000000000000, 0.0000000000000000000, 0.0000000000000000000 ) ) ;
#285 = CONICAL_SURFACE ( 'NONE', #237, 1.200000000000003286, 0.7853981633974453924 ) ;
#286 = DIRECTION ( 'NONE',  ( -3.491481338843133355E-15, 1.224646799147353207E-16, -1.000000000000000000 ) ) ;
#287 = VERTEX_POINT ( 'NONE', #216 ) ;
#288 = EDGE_CURVE ( 'NONE', #7, #7, #65, .T. ) ;
#289 = AXIS2_PLACEMENT_3D ( 'NONE', #128, #57, #263 ) ;
#290 = CARTESIAN_POINT ( 'NONE',  ( 6.590036799080176703E-14, 1.499999999999995559, 18.87461555576785344 ) ) ;
#291 = DIRECTION ( 'NONE',  ( -3.491481338843133355E-15, 1.224646799147353207E-16, -1.000000000000000000 ) ) ;
#292 = DATE_AND_TIME ( #296, #210 ) ;
#293 = EDGE_LOOP ( 'NONE', ( #15 ) ) ;
#294 = ORIENTED_EDGE ( 'NONE', *, *, #295, .F. ) ;
#295 = EDGE_CURVE ( 'NONE', #235, #235, #140, .T. ) ;
#296 = CALENDAR_DATE ( 2021, 1, 12 ) ;
#297 = EDGE_LOOP ( 'NONE', ( #243 ) ) ;
#298 = CALENDAR_DATE ( 2021, 1, 12 ) ;
#299 = PERSON_AND_ORGANIZATION_ROLE ( 'creator' ) ;
#300 = ADVANCED_FACE ( 'NONE', ( #84, #153 ), #174, .T. ) ;
#301 = FACE_BOUND ( 'NONE', #116, .T. ) ;
#302 = LOCAL_TIME ( 11, 40, 6.000000000000000000, #161 ) ;
#303 = DIRECTION ( 'NONE',  ( -3.491481338843133355E-15, 1.224646799147353207E-16, -1.000000000000000000 ) ) ;
ENDSEC;
END-ISO-10303-21;
