ISO-10303-21;
HEADER;
FILE_DESCRIPTION (( 'STEP AP203' ),
    '1' );
FILE_NAME ('200777.step',
    '2021-12-01T10:40:05',
    ( '' ),
    ( '' ),
    'SwSTEP 2.0',
    'SolidWorks 2019',
    '' );
FILE_SCHEMA (( 'CONFIG_CONTROL_DESIGN' ));
ENDSEC;

DATA;
#1 = APPROVAL_PERSON_ORGANIZATION ( #295, #263, #24 ) ;
#2 = ADVANCED_FACE ( 'NONE', ( #171, #211 ), #72, .T. ) ;
#3 = EDGE_CURVE ( 'NONE', #13, #13, #86, .T. ) ;
#4 = CARTESIAN_POINT ( 'NONE',  ( 1.326762908760390423E-13, 8.998558695971103225E-33, 38.00000000000000000 ) ) ;
#5 = AXIS2_PLACEMENT_3D ( 'NONE', #9, #176, #83 ) ;
#6 = EDGE_CURVE ( 'NONE', #253, #253, #40, .T. ) ;
#7 = PERSON_AND_ORGANIZATION_ROLE ( 'classification_officer' ) ;
#8 = ORIENTED_EDGE ( 'NONE', *, *, #146, .T. ) ;
#9 = CARTESIAN_POINT ( 'NONE',  ( 3.840629472727446691E-14, -1.301042606982605321E-15, 11.00000000000000000 ) ) ;
#10 = ORIENTED_EDGE ( 'NONE', *, *, #194, .F. ) ;
#11 = EDGE_CURVE ( 'NONE', #123, #123, #79, .T. ) ;
#12 = EDGE_LOOP ( 'NONE', ( #10 ) ) ;
#13 = VERTEX_POINT ( 'NONE', #290 ) ;
#14 = APPROVAL ( #59, 'UNSPECIFIED' ) ;
#15 = ORIENTED_EDGE ( 'NONE', *, *, #297, .F. ) ;
#16 = VERTEX_POINT ( 'NONE', #118 ) ;
#17 = ORIENTED_EDGE ( 'NONE', *, *, #258, .T. ) ;
#18 = PERSON_AND_ORGANIZATION_ROLE ( 'design_owner' ) ;
#19 = AXIS2_PLACEMENT_3D ( 'NONE', #177, #36, #136 ) ;
#20 = FACE_BOUND ( 'NONE', #90, .T. ) ;
#21 = PRODUCT_DEFINITION ( 'UNKNOWN', '', #216, #75 ) ;
#22 = MECHANICAL_CONTEXT ( 'NONE', #238, 'mechanical' ) ;
#23 = CARTESIAN_POINT ( 'NONE',  ( 3.961887347097083078E-14, -1.389643016053602315E-15, 11.34729635533384773 ) ) ;
#24 = APPROVAL_ROLE ( '' ) ;
#25 = CARTESIAN_POINT ( 'NONE',  ( 0.0000000000000000000, 0.0000000000000000000, 0.0000000000000000000 ) ) ;
#26 = ADVANCED_FACE ( 'NONE', ( #74, #77 ), #61, .T. ) ;
#27 = DIRECTION ( 'NONE',  ( 3.491481338843133355E-15, -1.224646799147353207E-16, 1.000000000000000000 ) ) ;
#28 = DIRECTION ( 'NONE',  ( -4.275831445896958607E-31, -1.000000000000000000, -1.224646799147353207E-16 ) ) ;
#29 = CC_DESIGN_PERSON_AND_ORGANIZATION_ASSIGNMENT ( #299, #268, ( #21 ) ) ;
#30 = APPROVAL_PERSON_ORGANIZATION ( #286, #14, #57 ) ;
#31 = CC_DESIGN_DATE_AND_TIME_ASSIGNMENT ( #267, #198, ( #285 ) ) ;
#32 = DIRECTION ( 'NONE',  ( 0.0000000000000000000, 1.000000000000000000, 0.0000000000000000000 ) ) ;
#33 = AXIS2_PLACEMENT_3D ( 'NONE', #4, #107, #196 ) ;
#34 = COORDINATED_UNIVERSAL_TIME_OFFSET ( 1, 0, .AHEAD. ) ;
#35 = CARTESIAN_POINT ( 'NONE',  ( 8.728703347107831416E-16, -3.061616997868382402E-17, 0.2499999999999999445 ) ) ;
#36 = DIRECTION ( 'NONE',  ( -3.491481338843133355E-15, 1.224646799147353207E-16, -1.000000000000000000 ) ) ;
#37 = CALENDAR_DATE ( 2021, 1, 12 ) ;
#38 = EDGE_LOOP ( 'NONE', ( #95 ) ) ;
#39 = CARTESIAN_POINT ( 'NONE',  ( 1.326762908760390423E-13, -4.653657836759941941E-15, 38.00000000000000000 ) ) ;
#40 = CIRCLE ( 'NONE', #91, 0.5053844939755823829 ) ;
#41 = DATE_TIME_ROLE ( 'creation_date' ) ;
#42 = EDGE_LOOP ( 'NONE', ( #161 ) ) ;
#43 = VERTEX_POINT ( 'NONE', #165 ) ;
#44 = EDGE_LOOP ( 'NONE', ( #291 ) ) ;
#45 = MANIFOLD_SOLID_BREP ( 'Corps-Déplacer/Copier1[1]', #67 ) ;
#46 = FACE_OUTER_BOUND ( 'NONE', #203, .T. ) ;
#47 = AXIS2_PLACEMENT_3D ( 'NONE', #221, #113, #246 ) ;
#48 = LOCAL_TIME ( 11, 40, 5.000000000000000000, #248 ) ;
#49 = FACE_OUTER_BOUND ( 'NONE', #12, .T. ) ;
#50 = VERTEX_POINT ( 'NONE', #186 ) ;
#51 = FACE_OUTER_BOUND ( 'NONE', #92, .T. ) ;
#52 = DIRECTION ( 'NONE',  ( 3.491481338843133355E-15, -1.224646799147353207E-16, 1.000000000000000000 ) ) ;
#53 = FACE_BOUND ( 'NONE', #38, .T. ) ;
#54 = AXIS2_PLACEMENT_3D ( 'NONE', #189, #277, #28 ) ;
#55 = CARTESIAN_POINT ( 'NONE',  ( 1.326762908760390423E-13, -4.653657836759941941E-15, 38.00000000000000000 ) ) ;
#56 = DIRECTION ( 'NONE',  ( 0.0000000000000000000, 1.000000000000000000, 0.0000000000000000000 ) ) ;
#57 = APPROVAL_ROLE ( '' ) ;
#58 = FACE_OUTER_BOUND ( 'NONE', #205, .T. ) ;
#59 = APPROVAL_STATUS ( 'not_yet_approved' ) ;
#60 =( NAMED_UNIT ( * ) SI_UNIT ( $, .STERADIAN. ) SOLID_ANGLE_UNIT ( ) );
#61 = CONICAL_SURFACE ( 'NONE', #175, 0.5499999999999993783, 0.5235987755982925984 ) ;
#62 = ORIENTED_EDGE ( 'NONE', *, *, #3, .F. ) ;
#63 = VERTEX_POINT ( 'NONE', #210 ) ;
#64 = ORIENTED_EDGE ( 'NONE', *, *, #258, .F. ) ;
#65 = CARTESIAN_POINT ( 'NONE',  ( 1.791096342465729874E-14, 0.4749999999999985345, 5.129903810567669531 ) ) ;
#66 = FACE_OUTER_BOUND ( 'NONE', #151, .T. ) ;
#67 = CLOSED_SHELL ( 'NONE', ( #76, #97, #2, #117, #70, #73, #179, #215 ) ) ;
#68 = CC_DESIGN_APPROVAL ( #153, ( #216 ) ) ;
#69 = DIRECTION ( 'NONE',  ( 3.491481338843133355E-15, -1.224646799147353207E-16, 1.000000000000000000 ) ) ;
#70 = ADVANCED_FACE ( 'NONE', ( #53, #149 ), #284, .T. ) ;
#71 = APPLICATION_PROTOCOL_DEFINITION ( 'international standard', 'config_control_design', 1994, #103 ) ;
#72 = CYLINDRICAL_SURFACE ( 'NONE', #106, 0.4749999999999995337 ) ;
#73 = ADVANCED_FACE ( 'NONE', ( #66, #51 ), #102, .T. ) ;
#74 = FACE_BOUND ( 'NONE', #289, .T. ) ;
#75 = DESIGN_CONTEXT ( 'detailed design', #103, 'design' ) ;
#76 = ADVANCED_FACE ( 'NONE', ( #235 ), #173, .F. ) ;
#77 = FACE_OUTER_BOUND ( 'NONE', #230, .T. ) ;
#78 = ADVANCED_FACE ( 'NONE', ( #128 ), #191, .F. ) ;
#79 = CIRCLE ( 'NONE', #241, 0.4749999999999992006 ) ;
#80 = UNCERTAINTY_MEASURE_WITH_UNIT (LENGTH_MEASURE( 1.000000000000000082E-05 ), #274, 'distance_accuracy_value', 'NONE');
#81 = PLANE ( 'NONE',  #105 ) ;
#82 = DATE_AND_TIME ( #37, #48 ) ;
#83 = DIRECTION ( 'NONE',  ( 4.275831445896958607E-31, 1.000000000000000000, 1.224646799147353207E-16 ) ) ;
#84 = APPROVAL_DATE_TIME ( #227, #14 ) ;
#85 = ORIENTED_EDGE ( 'NONE', *, *, #181, .F. ) ;
#86 = CIRCLE ( 'NONE', #129, 0.5500000000000000444 ) ;
#87 = DIRECTION ( 'NONE',  ( 0.0000000000000000000, 1.000000000000000000, 0.0000000000000000000 ) ) ;
#88 = APPROVAL_PERSON_ORGANIZATION ( #219, #153, #108 ) ;
#89 = FACE_OUTER_BOUND ( 'NONE', #44, .T. ) ;
#90 = EDGE_LOOP ( 'NONE', ( #158 ) ) ;
#91 = AXIS2_PLACEMENT_3D ( 'NONE', #23, #278, #298 ) ;
#92 = EDGE_LOOP ( 'NONE', ( #100 ) ) ;
#93 = APPROVAL_STATUS ( 'not_yet_approved' ) ;
#94 = PRODUCT_DEFINITION_SHAPE ( 'NONE', 'NONE',  #21 ) ;
#95 = ORIENTED_EDGE ( 'NONE', *, *, #6, .F. ) ;
#96 = COORDINATED_UNIVERSAL_TIME_OFFSET ( 1, 0, .AHEAD. ) ;
#97 = ADVANCED_FACE ( 'NONE', ( #46, #20 ), #262, .T. ) ;
#98 = DIRECTION ( 'NONE',  ( 0.0000000000000000000, 1.000000000000000000, 0.0000000000000000000 ) ) ;
#99 = CIRCLE ( 'NONE', #259, 0.5499999999999993783 ) ;
#100 = ORIENTED_EDGE ( 'NONE', *, *, #195, .T. ) ;
#101 = CARTESIAN_POINT ( 'NONE',  ( 5.931342880592585026E-14, -2.080435026976239004E-15, 16.98804119216021391 ) ) ;
#102 = CYLINDRICAL_SURFACE ( 'NONE', #301, 1.500000000000000444 ) ;
#103 = APPLICATION_CONTEXT ( 'configuration controlled 3d designs of mechanical parts and assemblies' ) ;
#104 = ADVANCED_FACE ( 'NONE', ( #49, #148 ), #209, .T. ) ;
#105 = AXIS2_PLACEMENT_3D ( 'NONE', #159, #157, #244 ) ;
#106 = AXIS2_PLACEMENT_3D ( 'NONE', #122, #257, #233 ) ;
#107 = DIRECTION ( 'NONE',  ( -3.491481338843133355E-15, 1.224646799147353207E-16, -1.000000000000000000 ) ) ;
#108 = APPROVAL_ROLE ( '' ) ;
#109 = CC_DESIGN_PERSON_AND_ORGANIZATION_ASSIGNMENT ( #231, #18, ( #174 ) ) ;
#110 = PERSON_AND_ORGANIZATION_ROLE ( 'design_supplier' ) ;
#111 = ORIENTED_EDGE ( 'NONE', *, *, #297, .T. ) ;
#112 = CIRCLE ( 'NONE', #193, 1.499999999999997558 ) ;
#113 = DIRECTION ( 'NONE',  ( -3.491481338843133355E-15, 1.224646799147353207E-16, -1.000000000000000000 ) ) ;
#114 =( GEOMETRIC_REPRESENTATION_CONTEXT ( 3 ) GLOBAL_UNCERTAINTY_ASSIGNED_CONTEXT ( ( #80 ) ) GLOBAL_UNIT_ASSIGNED_CONTEXT ( ( #274, #162, #60 ) ) REPRESENTATION_CONTEXT ( 'NONE', 'WORKASPACE' ) );
#115 = DATE_AND_TIME ( #137, #252 ) ;
#116 = ORIENTED_EDGE ( 'NONE', *, *, #194, .T. ) ;
#117 = ADVANCED_FACE ( 'NONE', ( #188, #166 ), #247, .F. ) ;
#118 = CARTESIAN_POINT ( 'NONE',  ( 8.728703347107833388E-16, 0.5499999999999993783, 0.2500000000000000000 ) ) ;
#119 = ORIENTED_EDGE ( 'NONE', *, *, #6, .T. ) ;
#120 = DIRECTION ( 'NONE',  ( 0.0000000000000000000, 0.0000000000000000000, 1.000000000000000000 ) ) ;
#121 = DIRECTION ( 'NONE',  ( 0.0000000000000000000, 1.000000000000000000, 0.0000000000000000000 ) ) ;
#122 = CARTESIAN_POINT ( 'NONE',  ( 0.0000000000000000000, 0.0000000000000000000, 0.0000000000000000000 ) ) ;
#123 = VERTEX_POINT ( 'NONE', #65 ) ;
#124 = CC_DESIGN_PERSON_AND_ORGANIZATION_ASSIGNMENT ( #155, #7, ( #285 ) ) ;
#125 = DIRECTION ( 'NONE',  ( 4.275831445896958607E-31, 1.000000000000000000, 1.224646799147353207E-16 ) ) ;
#126 = CIRCLE ( 'NONE', #172, 1.500000000000003331 ) ;
#127 = DIRECTION ( 'NONE',  ( 0.0000000000000000000, -1.000000000000000000, 0.0000000000000000000 ) ) ;
#128 = FACE_OUTER_BOUND ( 'NONE', #243, .T. ) ;
#129 = AXIS2_PLACEMENT_3D ( 'NONE', #170, #214, #145 ) ;
#130 = CC_DESIGN_DATE_AND_TIME_ASSIGNMENT ( #82, #41, ( #21 ) ) ;
#131 = DIRECTION ( 'NONE',  ( 0.0000000000000000000, 1.000000000000000000, 0.0000000000000000000 ) ) ;
#132 = ADVANCED_BREP_SHAPE_REPRESENTATION ( '200777', ( #45, #240, #226 ), #114 ) ;
#133 = COORDINATED_UNIVERSAL_TIME_OFFSET ( 1, 0, .AHEAD. ) ;
#134 = AXIS2_PLACEMENT_3D ( 'NONE', #101, #27, #127 ) ;
#135 = EDGE_LOOP ( 'NONE', ( #8 ) ) ;
#136 = DIRECTION ( 'NONE',  ( 0.0000000000000000000, 1.000000000000000000, 0.0000000000000000000 ) ) ;
#137 = CALENDAR_DATE ( 2021, 1, 12 ) ;
#138 = DIRECTION ( 'NONE',  ( -3.491481338843133355E-15, 1.224646799147353207E-16, -1.000000000000000000 ) ) ;
#139 = APPROVAL_STATUS ( 'not_yet_approved' ) ;
#140 = ORIENTED_EDGE ( 'NONE', *, *, #192, .T. ) ;
#141 = CIRCLE ( 'NONE', #279, 0.4749999999999997558 ) ;
#142 = DIRECTION ( 'NONE',  ( 1.000000000000000000, 0.0000000000000000000, 0.0000000000000000000 ) ) ;
#143 = EDGE_LOOP ( 'NONE', ( #140 ) ) ;
#144 = APPLICATION_PROTOCOL_DEFINITION ( 'international standard', 'config_control_design', 1994, #238 ) ;
#145 = DIRECTION ( 'NONE',  ( 0.0000000000000000000, 1.000000000000000000, 0.0000000000000000000 ) ) ;
#146 = EDGE_CURVE ( 'NONE', #50, #50, #293, .T. ) ;
#147 = LOCAL_TIME ( 11, 40, 5.000000000000000000, #96 ) ;
#148 = FACE_OUTER_BOUND ( 'NONE', #135, .T. ) ;
#149 = FACE_OUTER_BOUND ( 'NONE', #42, .T. ) ;
#150 = AXIS2_PLACEMENT_3D ( 'NONE', #254, #234, #121 ) ;
#151 = EDGE_LOOP ( 'NONE', ( #85 ) ) ;
#152 = CIRCLE ( 'NONE', #218, 1.200000000000003286 ) ;
#153 = APPROVAL ( #139, 'UNSPECIFIED' ) ;
#154 = CLOSED_SHELL ( 'NONE', ( #78, #26, #104, #281 ) ) ;
#155 = PERSON_AND_ORGANIZATION ( #190, #264 ) ;
#156 = DIRECTION ( 'NONE',  ( 0.0000000000000000000, 1.000000000000000000, 0.0000000000000000000 ) ) ;
#157 = DIRECTION ( 'NONE',  ( 3.491481338843133355E-15, -1.224646799147353207E-16, 1.000000000000000000 ) ) ;
#158 = ORIENTED_EDGE ( 'NONE', *, *, #11, .T. ) ;
#159 = CARTESIAN_POINT ( 'NONE',  ( 1.745740669421566678E-14, 4.124339402320100211E-33, 5.000000000000000000 ) ) ;
#160 = PERSON_AND_ORGANIZATION ( #190, #264 ) ;
#161 = ORIENTED_EDGE ( 'NONE', *, *, #181, .T. ) ;
#162 =( NAMED_UNIT ( * ) PLANE_ANGLE_UNIT ( ) SI_UNIT ( $, .RADIAN. ) );
#163 = CARTESIAN_POINT ( 'NONE',  ( 1.326762908760390423E-13, 1.199999999999998845, 38.00000000000000000 ) ) ;
#164 = ORIENTED_EDGE ( 'NONE', *, *, #3, .T. ) ;
#165 = CARTESIAN_POINT ( 'NONE',  ( 1.316288464743861212E-13, 1.499999999999998668, 37.69999999999999574 ) ) ;
#166 = FACE_OUTER_BOUND ( 'NONE', #228, .T. ) ;
#167 = CALENDAR_DATE ( 2021, 1, 12 ) ;
#168 = LOCAL_TIME ( 11, 40, 5.000000000000000000, #34 ) ;
#169 = CARTESIAN_POINT ( 'NONE',  ( 1.791096342465729874E-14, -6.282320281545506153E-16, 5.129903810567669531 ) ) ;
#170 = CARTESIAN_POINT ( 'NONE',  ( 1.745740669421566678E-14, -6.123233995736766282E-16, 5.000000000000000000 ) ) ;
#171 = FACE_OUTER_BOUND ( 'NONE', #271, .T. ) ;
#172 = AXIS2_PLACEMENT_3D ( 'NONE', #283, #204, #87 ) ;
#173 = PLANE ( 'NONE',  #54 ) ;
#174 = PRODUCT ( '200777', '200777', '', ( #22 ) ) ;
#175 = AXIS2_PLACEMENT_3D ( 'NONE', #273, #52, #184 ) ;
#176 = DIRECTION ( 'NONE',  ( -3.491481338843133355E-15, 1.224646799147353207E-16, -1.000000000000000000 ) ) ;
#177 = CARTESIAN_POINT ( 'NONE',  ( 1.745740669421566678E-14, -6.123233995736766282E-16, 5.000000000000000000 ) ) ;
#178 = CC_DESIGN_APPROVAL ( #263, ( #21 ) ) ;
#179 = ADVANCED_FACE ( 'NONE', ( #260, #239 ), #200, .T. ) ;
#180 = DIRECTION ( 'NONE',  ( -3.491481338843133355E-15, 1.224646799147353207E-16, -1.000000000000000000 ) ) ;
#181 = EDGE_CURVE ( 'NONE', #232, #232, #112, .T. ) ;
#182 = AXIS2_PLACEMENT_3D ( 'NONE', #39, #261, #32 ) ;
#183 = CARTESIAN_POINT ( 'NONE',  ( 5.931342880592585026E-14, 1.499999999999995559, 16.98804119216021391 ) ) ;
#184 = DIRECTION ( 'NONE',  ( -3.501690807976796521E-31, -1.000000000000000000, -9.856383386231869920E-17 ) ) ;
#185 = CARTESIAN_POINT ( 'NONE',  ( 0.0000000000000000000, 0.0000000000000000000, 0.0000000000000000000 ) ) ;
#186 = CARTESIAN_POINT ( 'NONE',  ( 1.745740669421566678E-14, 0.5499999999999993783, 5.000000000000000000 ) ) ;
#187 = CC_DESIGN_APPROVAL ( #14, ( #285 ) ) ;
#188 = FACE_OUTER_BOUND ( 'NONE', #294, .T. ) ;
#189 = CARTESIAN_POINT ( 'NONE',  ( 1.745740669421566678E-14, 4.124339402320100211E-33, 5.000000000000000000 ) ) ;
#190 = PERSON ( 'UNSPECIFIED', 'UNSPECIFIED', 'UNSPECIFIED', ('UNSPECIFIED'), ('UNSPECIFIED'), ('UNSPECIFIED') ) ;
#191 = PLANE ( 'NONE',  #236 ) ;
#192 = EDGE_CURVE ( 'NONE', #206, #206, #152, .T. ) ;
#193 = AXIS2_PLACEMENT_3D ( 'NONE', #266, #138, #131 ) ;
#194 = EDGE_CURVE ( 'NONE', #16, #16, #99, .T. ) ;
#195 = EDGE_CURVE ( 'NONE', #43, #43, #126, .T. ) ;
#196 = DIRECTION ( 'NONE',  ( 4.275831445896958607E-31, 1.000000000000000000, 1.224646799147353207E-16 ) ) ;
#197 = PERSON_AND_ORGANIZATION ( #190, #264 ) ;
#198 = DATE_TIME_ROLE ( 'classification_date' ) ;
#199 = DIRECTION ( 'NONE',  ( -3.491481338843133355E-15, 1.224646799147353207E-16, -1.000000000000000000 ) ) ;
#200 = CONICAL_SURFACE ( 'NONE', #182, 1.200000000000003286, 0.7853981633974453924 ) ;
#201 = CALENDAR_DATE ( 2021, 1, 12 ) ;
#202 = SECURITY_CLASSIFICATION_LEVEL ( 'unclassified' ) ;
#203 = EDGE_LOOP ( 'NONE', ( #62 ) ) ;
#204 = DIRECTION ( 'NONE',  ( -3.491481338843133355E-15, 1.224646799147353207E-16, -1.000000000000000000 ) ) ;
#205 = EDGE_LOOP ( 'NONE', ( #207 ) ) ;
#206 = VERTEX_POINT ( 'NONE', #163 ) ;
#207 = ORIENTED_EDGE ( 'NONE', *, *, #192, .F. ) ;
#208 = CIRCLE ( 'NONE', #47, 0.4056624327025949994 ) ;
#209 = CYLINDRICAL_SURFACE ( 'NONE', #303, 0.5499999999999997113 ) ;
#210 = CARTESIAN_POINT ( 'NONE',  ( -1.892735826383161794E-31, 0.4056624327025949994, -5.421010862427522170E-17 ) ) ;
#211 = FACE_OUTER_BOUND ( 'NONE', #213, .T. ) ;
#212 = APPROVAL_DATE_TIME ( #229, #263 ) ;
#213 = EDGE_LOOP ( 'NONE', ( #17 ) ) ;
#214 = DIRECTION ( 'NONE',  ( -3.491481338843133355E-15, 1.224646799147353207E-16, -1.000000000000000000 ) ) ;
#215 = ADVANCED_FACE ( 'NONE', ( #58 ), #217, .F. ) ;
#216 = PRODUCT_DEFINITION_FORMATION_WITH_SPECIFIED_SOURCE ( 'ANY', '', #174, .NOT_KNOWN. ) ;
#217 = PLANE ( 'NONE',  #33 ) ;
#218 = AXIS2_PLACEMENT_3D ( 'NONE', #55, #180, #156 ) ;
#219 = PERSON_AND_ORGANIZATION ( #190, #264 ) ;
#220 = DIRECTION ( 'NONE',  ( 3.501690807976796521E-31, 1.000000000000000000, 9.856383386231869920E-17 ) ) ;
#221 = CARTESIAN_POINT ( 'NONE',  ( -3.627280012551976128E-31, 1.272278561985614054E-32, -1.038894285986313750E-16 ) ) ;
#222 = CC_DESIGN_PERSON_AND_ORGANIZATION_ASSIGNMENT ( #197, #110, ( #216 ) ) ;
#223 = PRODUCT_RELATED_PRODUCT_CATEGORY ( 'detail', '', ( #174 ) ) ;
#224 = COORDINATED_UNIVERSAL_TIME_OFFSET ( 1, 0, .AHEAD. ) ;
#225 = ORIENTED_EDGE ( 'NONE', *, *, #11, .F. ) ;
#226 = AXIS2_PLACEMENT_3D ( 'NONE', #272, #120, #142 ) ;
#227 = DATE_AND_TIME ( #282, #237 ) ;
#228 = EDGE_LOOP ( 'NONE', ( #119 ) ) ;
#229 = DATE_AND_TIME ( #167, #147 ) ;
#230 = EDGE_LOOP ( 'NONE', ( #116 ) ) ;
#231 = PERSON_AND_ORGANIZATION ( #190, #264 ) ;
#232 = VERTEX_POINT ( 'NONE', #183 ) ;
#233 = DIRECTION ( 'NONE',  ( 4.275831445896957731E-31, 1.000000000000000000, 1.224646799147353207E-16 ) ) ;
#234 = DIRECTION ( 'NONE',  ( -3.491481338843133355E-15, 1.224646799147353207E-16, -1.000000000000000000 ) ) ;
#235 = FACE_OUTER_BOUND ( 'NONE', #287, .T. ) ;
#236 = AXIS2_PLACEMENT_3D ( 'NONE', #251, #69, #300 ) ;
#237 = LOCAL_TIME ( 11, 40, 5.000000000000000000, #224 ) ;
#238 = APPLICATION_CONTEXT ( 'configuration controlled 3d designs of mechanical parts and assemblies' ) ;
#239 = FACE_BOUND ( 'NONE', #143, .T. ) ;
#240 = MANIFOLD_SOLID_BREP ( 'Corps-Déplacer/Copier1[2]', #154 ) ;
#241 = AXIS2_PLACEMENT_3D ( 'NONE', #169, #256, #98 ) ;
#242 = SHAPE_DEFINITION_REPRESENTATION ( #94, #132 ) ;
#243 = EDGE_LOOP ( 'NONE', ( #111 ) ) ;
#244 = DIRECTION ( 'NONE',  ( -4.275831445896958607E-31, -1.000000000000000000, -1.224646799147353207E-16 ) ) ;
#245 = ORIENTED_EDGE ( 'NONE', *, *, #195, .F. ) ;
#246 = DIRECTION ( 'NONE',  ( 4.275831445896958607E-31, 1.000000000000000000, 1.224646799147353207E-16 ) ) ;
#247 = TOROIDAL_SURFACE ( 'NONE', #5, 2.474999999999999645, 2.000000000000000000 ) ;
#248 = COORDINATED_UNIVERSAL_TIME_OFFSET ( 1, 0, .AHEAD. ) ;
#249 = EDGE_LOOP ( 'NONE', ( #245 ) ) ;
#250 = CARTESIAN_POINT ( 'NONE',  ( 3.961887347097083078E-14, 0.5053844939755809396, 11.34729635533384773 ) ) ;
#251 = CARTESIAN_POINT ( 'NONE',  ( -1.813640006275988064E-31, 6.361392809928070272E-33, -5.194471429931568748E-17 ) ) ;
#252 = LOCAL_TIME ( 11, 40, 5.000000000000000000, #133 ) ;
#253 = VERTEX_POINT ( 'NONE', #250 ) ;
#254 = CARTESIAN_POINT ( 'NONE',  ( 1.791096342465729874E-14, -6.282320281545506153E-16, 5.129903810567669531 ) ) ;
#255 = CC_DESIGN_PERSON_AND_ORGANIZATION_ASSIGNMENT ( #160, #288, ( #216 ) ) ;
#256 = DIRECTION ( 'NONE',  ( -3.491481338843133355E-15, 1.224646799147353207E-16, -1.000000000000000000 ) ) ;
#257 = DIRECTION ( 'NONE',  ( -3.491481338843133355E-15, 1.224646799147353207E-16, -1.000000000000000000 ) ) ;
#258 = EDGE_CURVE ( 'NONE', #292, #292, #141, .T. ) ;
#259 = AXIS2_PLACEMENT_3D ( 'NONE', #35, #199, #220 ) ;
#260 = FACE_OUTER_BOUND ( 'NONE', #249, .T. ) ;
#261 = DIRECTION ( 'NONE',  ( -3.491481338843133355E-15, 1.224646799147353207E-16, -1.000000000000000000 ) ) ;
#262 = CONICAL_SURFACE ( 'NONE', #150, 0.4749999999999992006, 0.5235987755982923764 ) ;
#263 = APPROVAL ( #93, 'UNSPECIFIED' ) ;
#264 = ORGANIZATION ( 'UNSPECIFIED', 'UNSPECIFIED', '' ) ;
#265 = CARTESIAN_POINT ( 'NONE',  ( 3.840629472727446691E-14, -1.347111479062088405E-15, 11.00000000000000000 ) ) ;
#266 = CARTESIAN_POINT ( 'NONE',  ( 5.931342880592585026E-14, -2.080435026976239004E-15, 16.98804119216021391 ) ) ;
#267 = DATE_AND_TIME ( #201, #168 ) ;
#268 = PERSON_AND_ORGANIZATION_ROLE ( 'creator' ) ;
#269 = APPROVAL_DATE_TIME ( #115, #153 ) ;
#270 = CARTESIAN_POINT ( 'NONE',  ( 3.840629472727446691E-14, 0.4749999999999984235, 11.00000000000000000 ) ) ;
#271 = EDGE_LOOP ( 'NONE', ( #225 ) ) ;
#272 = CARTESIAN_POINT ( 'NONE',  ( 0.0000000000000000000, 0.0000000000000000000, 0.0000000000000000000 ) ) ;
#273 = CARTESIAN_POINT ( 'NONE',  ( 8.728703347107831416E-16, -3.061616997868382402E-17, 0.2499999999999999445 ) ) ;
#274 =( LENGTH_UNIT ( ) NAMED_UNIT ( * ) SI_UNIT ( .MILLI., .METRE. ) );
#275 = DIRECTION ( 'NONE',  ( -3.491481338843133355E-15, 1.224646799147353207E-16, -1.000000000000000000 ) ) ;
#276 = CC_DESIGN_SECURITY_CLASSIFICATION ( #285, ( #216 ) ) ;
#277 = DIRECTION ( 'NONE',  ( 3.491481338843133355E-15, -1.224646799147353207E-16, 1.000000000000000000 ) ) ;
#278 = DIRECTION ( 'NONE',  ( -3.491481338843133355E-15, 1.224646799147353207E-16, -1.000000000000000000 ) ) ;
#279 = AXIS2_PLACEMENT_3D ( 'NONE', #265, #280, #56 ) ;
#280 = DIRECTION ( 'NONE',  ( -3.491481338843133355E-15, 1.224646799147353207E-16, -1.000000000000000000 ) ) ;
#281 = ADVANCED_FACE ( 'NONE', ( #89 ), #81, .T. ) ;
#282 = CALENDAR_DATE ( 2021, 1, 12 ) ;
#283 = CARTESIAN_POINT ( 'NONE',  ( 1.316288464743861212E-13, -4.616918432785521081E-15, 37.69999999999999574 ) ) ;
#284 = CONICAL_SURFACE ( 'NONE', #134, 1.499999999999997558, 0.1745329251994259534 ) ;
#285 = SECURITY_CLASSIFICATION ( '', '', #202 ) ;
#286 = PERSON_AND_ORGANIZATION ( #190, #264 ) ;
#287 = EDGE_LOOP ( 'NONE', ( #164 ) ) ;
#288 = PERSON_AND_ORGANIZATION_ROLE ( 'creator' ) ;
#289 = EDGE_LOOP ( 'NONE', ( #15 ) ) ;
#290 = CARTESIAN_POINT ( 'NONE',  ( 1.745740669421566678E-14, 0.5499999999999993783, 5.000000000000000000 ) ) ;
#291 = ORIENTED_EDGE ( 'NONE', *, *, #146, .F. ) ;
#292 = VERTEX_POINT ( 'NONE', #270 ) ;
#293 = CIRCLE ( 'NONE', #19, 0.5500000000000000444 ) ;
#294 = EDGE_LOOP ( 'NONE', ( #64 ) ) ;
#295 = PERSON_AND_ORGANIZATION ( #190, #264 ) ;
#296 = DIRECTION ( 'NONE',  ( -3.491481338843133355E-15, 1.224646799147353207E-16, -1.000000000000000000 ) ) ;
#297 = EDGE_CURVE ( 'NONE', #63, #63, #208, .T. ) ;
#298 = DIRECTION ( 'NONE',  ( 0.0000000000000000000, 1.000000000000000000, 0.0000000000000000000 ) ) ;
#299 = PERSON_AND_ORGANIZATION ( #190, #264 ) ;
#300 = DIRECTION ( 'NONE',  ( -4.275831445896958607E-31, -1.000000000000000000, -1.224646799147353207E-16 ) ) ;
#301 = AXIS2_PLACEMENT_3D ( 'NONE', #185, #275, #302 ) ;
#302 = DIRECTION ( 'NONE',  ( 4.275831445896958607E-31, 1.000000000000000000, 1.224646799147353207E-16 ) ) ;
#303 = AXIS2_PLACEMENT_3D ( 'NONE', #25, #296, #125 ) ;
ENDSEC;
END-ISO-10303-21;
