ISO-10303-21;
HEADER;
FILE_DESCRIPTION (( 'STEP AP203' ),
    '1' );
FILE_NAME ('200776.STEP',
    '2021-12-01T10:59:27',
    ( '' ),
    ( '' ),
    'SwSTEP 2.0',
    'SolidWorks 2019',
    '' );
FILE_SCHEMA (( 'CONFIG_CONTROL_DESIGN' ));
ENDSEC;

DATA;
#1 = CARTESIAN_POINT ( 'NONE',  ( 8.728703347107833388E-16, 0.5999999999999993117, 0.2500000000000000000 ) ) ;
#2 = EDGE_LOOP ( 'NONE', ( #217 ) ) ;
#3 = AXIS2_PLACEMENT_3D ( 'NONE', #173, #269, #50 ) ;
#4 = PRODUCT_DEFINITION_FORMATION_WITH_SPECIFIED_SOURCE ( 'ANY', '', #34, .NOT_KNOWN. ) ;
#5 = DIRECTION ( 'NONE',  ( 3.491481338843133355E-15, -1.224646799147353207E-16, 1.000000000000000000 ) ) ;
#6 = ADVANCED_FACE ( 'NONE', ( #165, #112 ), #80, .T. ) ;
#7 = FACE_BOUND ( 'NONE', #2, .T. ) ;
#8 = AXIS2_PLACEMENT_3D ( 'NONE', #273, #279, #59 ) ;
#9 = DIRECTION ( 'NONE',  ( -3.491481338843133355E-15, 1.224646799147353207E-16, -1.000000000000000000 ) ) ;
#10 = CARTESIAN_POINT ( 'NONE',  ( 1.316288464743861212E-13, -4.616918432785521081E-15, 37.69999999999999574 ) ) ;
#11 = CALENDAR_DATE ( 2021, 1, 12 ) ;
#12 = PLANE ( 'NONE',  #293 ) ;
#13 = DIRECTION ( 'NONE',  ( -3.491481338843133355E-15, 1.224646799147353207E-16, -1.000000000000000000 ) ) ;
#14 = CARTESIAN_POINT ( 'NONE',  ( 1.812262323219672088E-14, 0.4899999999999984923, 5.190525588832580084 ) ) ;
#15 = AXIS2_PLACEMENT_3D ( 'NONE', #225, #281, #252 ) ;
#16 = DIRECTION ( 'NONE',  ( 4.275831445896958607E-31, 1.000000000000000000, 1.224646799147353207E-16 ) ) ;
#17 = DIRECTION ( 'NONE',  ( 4.275831445896958607E-31, 1.000000000000000000, 1.224646799147353207E-16 ) ) ;
#18 = APPLICATION_PROTOCOL_DEFINITION ( 'international standard', 'config_control_design', 1994, #272 ) ;
#19 = AXIS2_PLACEMENT_3D ( 'NONE', #209, #130, #238 ) ;
#20 = APPROVAL_STATUS ( 'not_yet_approved' ) ;
#21 = COORDINATED_UNIVERSAL_TIME_OFFSET ( 1, 0, .AHEAD. ) ;
#22 = DATE_AND_TIME ( #89, #88 ) ;
#23 = AXIS2_PLACEMENT_3D ( 'NONE', #196, #172, #292 ) ;
#24 = DATE_AND_TIME ( #11, #263 ) ;
#25 = COORDINATED_UNIVERSAL_TIME_OFFSET ( 1, 0, .AHEAD. ) ;
#26 = EDGE_CURVE ( 'NONE', #227, #227, #144, .T. ) ;
#27 = CIRCLE ( 'NONE', #109, 1.499999999999997558 ) ;
#28 = CC_DESIGN_APPROVAL ( #73, ( #187 ) ) ;
#29 = CARTESIAN_POINT ( 'NONE',  ( 1.326762908760390423E-13, 8.998558695971103225E-33, 38.00000000000000000 ) ) ;
#30 = SHAPE_DEFINITION_REPRESENTATION ( #131, #295 ) ;
#31 = AXIS2_PLACEMENT_3D ( 'NONE', #136, #70, #188 ) ;
#32 = PLANE ( 'NONE',  #71 ) ;
#33 = DIRECTION ( 'NONE',  ( -3.491481338843133355E-15, 1.224646799147353207E-16, -1.000000000000000000 ) ) ;
#34 = PRODUCT ( '200776', '200776', '', ( #64 ) ) ;
#35 = CYLINDRICAL_SURFACE ( 'NONE', #99, 0.5999999999999996447 ) ;
#36 = APPROVAL_PERSON_ORGANIZATION ( #214, #111, #236 ) ;
#37 = ORIENTED_EDGE ( 'NONE', *, *, #179, .F. ) ;
#38 = ADVANCED_FACE ( 'NONE', ( #219, #7 ), #245, .T. ) ;
#39 = DIRECTION ( 'NONE',  ( -3.491481338843133355E-15, 1.224646799147353207E-16, -1.000000000000000000 ) ) ;
#40 = PERSON_AND_ORGANIZATION_ROLE ( 'design_supplier' ) ;
#41 = ORIENTED_EDGE ( 'NONE', *, *, #289, .F. ) ;
#42 = ORIENTED_EDGE ( 'NONE', *, *, #26, .F. ) ;
#43 = CONICAL_SURFACE ( 'NONE', #277, 0.5999999999999993117, 0.5235987755982922653 ) ;
#44 = DATE_TIME_ROLE ( 'creation_date' ) ;
#45 = CC_DESIGN_DATE_AND_TIME_ASSIGNMENT ( #183, #44, ( #266 ) ) ;
#46 = COORDINATED_UNIVERSAL_TIME_OFFSET ( 1, 0, .AHEAD. ) ;
#47 = ORIENTED_EDGE ( 'NONE', *, *, #116, .T. ) ;
#48 = CLOSED_SHELL ( 'NONE', ( #261, #91, #133, #140 ) ) ;
#49 = CARTESIAN_POINT ( 'NONE',  ( 6.250789252516124325E-14, -2.192481731199788575E-15, 17.90297196486594800 ) ) ;
#50 = DIRECTION ( 'NONE',  ( 3.209883240645396738E-31, 1.000000000000000000, 9.035018104045880555E-17 ) ) ;
#51 = DATE_AND_TIME ( #218, #268 ) ;
#52 = ORIENTED_EDGE ( 'NONE', *, *, #78, .F. ) ;
#53 = APPROVAL_ROLE ( '' ) ;
#54 = FACE_OUTER_BOUND ( 'NONE', #60, .T. ) ;
#55 = CIRCLE ( 'NONE', #86, 0.4900000000000002132 ) ;
#56 = EDGE_CURVE ( 'NONE', #243, #243, #253, .T. ) ;
#57 = CARTESIAN_POINT ( 'NONE',  ( 1.812262323219672088E-14, -6.356560548256250374E-16, 5.190525588832580084 ) ) ;
#58 = CIRCLE ( 'NONE', #117, 1.500000000000003331 ) ;
#59 = DIRECTION ( 'NONE',  ( -4.275831445896958607E-31, -1.000000000000000000, -1.224646799147353207E-16 ) ) ;
#60 = EDGE_LOOP ( 'NONE', ( #297 ) ) ;
#61 = APPROVAL_DATE_TIME ( #85, #111 ) ;
#62 = ORIENTED_EDGE ( 'NONE', *, *, #289, .T. ) ;
#63 = PERSON_AND_ORGANIZATION ( #166, #192 ) ;
#64 = MECHANICAL_CONTEXT ( 'NONE', #272, 'mechanical' ) ;
#65 = ORIENTED_EDGE ( 'NONE', *, *, #56, .F. ) ;
#66 = CYLINDRICAL_SURFACE ( 'NONE', #186, 0.4899999999999996581 ) ;
#67 = ORIENTED_EDGE ( 'NONE', *, *, #234, .T. ) ;
#68 = CARTESIAN_POINT ( 'NONE',  ( 0.0000000000000000000, 0.0000000000000000000, 0.0000000000000000000 ) ) ;
#69 = PERSON_AND_ORGANIZATION ( #166, #192 ) ;
#70 = DIRECTION ( 'NONE',  ( -3.491481338843133355E-15, 1.224646799147353207E-16, -1.000000000000000000 ) ) ;
#71 = AXIS2_PLACEMENT_3D ( 'NONE', #119, #224, #124 ) ;
#72 = DIRECTION ( 'NONE',  ( 0.0000000000000000000, 1.000000000000000000, 0.0000000000000000000 ) ) ;
#73 = APPROVAL ( #120, 'UNSPECIFIED' ) ;
#74 = CARTESIAN_POINT ( 'NONE',  ( 4.311035480981396413E-14, 0.5203844939755793986, 12.34729635533384773 ) ) ;
#75 = AXIS2_PLACEMENT_3D ( 'NONE', #49, #5, #303 ) ;
#76 = EDGE_LOOP ( 'NONE', ( #47 ) ) ;
#77 = DIRECTION ( 'NONE',  ( -3.491481338843133355E-15, 1.224646799147353207E-16, -1.000000000000000000 ) ) ;
#78 = EDGE_CURVE ( 'NONE', #174, #174, #58, .T. ) ;
#79 = EDGE_LOOP ( 'NONE', ( #129 ) ) ;
#80 = CONICAL_SURFACE ( 'NONE', #75, 1.499999999999997558, 0.1745329251994261199 ) ;
#81 = CARTESIAN_POINT ( 'NONE',  ( 6.250789252516124325E-14, 1.499999999999995559, 17.90297196486594800 ) ) ;
#82 = ADVANCED_FACE ( 'NONE', ( #118, #54 ), #262, .F. ) ;
#83 = COORDINATED_UNIVERSAL_TIME_OFFSET ( 1, 0, .AHEAD. ) ;
#84 = FACE_OUTER_BOUND ( 'NONE', #260, .T. ) ;
#85 = DATE_AND_TIME ( #287, #213 ) ;
#86 = AXIS2_PLACEMENT_3D ( 'NONE', #215, #190, #259 ) ;
#87 = FACE_BOUND ( 'NONE', #127, .T. ) ;
#88 = LOCAL_TIME ( 11, 59, 27.00000000000000000, #46 ) ;
#89 = CALENDAR_DATE ( 2021, 1, 12 ) ;
#90 =( NAMED_UNIT ( * ) SI_UNIT ( $, .STERADIAN. ) SOLID_ANGLE_UNIT ( ) );
#91 = ADVANCED_FACE ( 'NONE', ( #248, #102 ), #43, .T. ) ;
#92 = AXIS2_PLACEMENT_3D ( 'NONE', #57, #150, #200 ) ;
#93 = CC_DESIGN_PERSON_AND_ORGANIZATION_ASSIGNMENT ( #63, #110, ( #266 ) ) ;
#94 = DIRECTION ( 'NONE',  ( -3.491481338843133355E-15, 1.224646799147353207E-16, -1.000000000000000000 ) ) ;
#95 = DIRECTION ( 'NONE',  ( -3.491481338843133355E-15, 1.224646799147353207E-16, -1.000000000000000000 ) ) ;
#96 = FACE_OUTER_BOUND ( 'NONE', #291, .T. ) ;
#97 = DIRECTION ( 'NONE',  ( 0.0000000000000000000, 1.000000000000000000, 0.0000000000000000000 ) ) ;
#98 = ADVANCED_FACE ( 'NONE', ( #180, #208 ), #275, .T. ) ;
#99 = AXIS2_PLACEMENT_3D ( 'NONE', #202, #77, #16 ) ;
#100 = FACE_OUTER_BOUND ( 'NONE', #76, .T. ) ;
#101 = EDGE_LOOP ( 'NONE', ( #65 ) ) ;
#102 = FACE_OUTER_BOUND ( 'NONE', #154, .T. ) ;
#103 = APPLICATION_PROTOCOL_DEFINITION ( 'international standard', 'config_control_design', 1994, #288 ) ;
#104 =( GEOMETRIC_REPRESENTATION_CONTEXT ( 3 ) GLOBAL_UNCERTAINTY_ASSIGNED_CONTEXT ( ( #301 ) ) GLOBAL_UNIT_ASSIGNED_CONTEXT ( ( #181, #106, #90 ) ) REPRESENTATION_CONTEXT ( 'NONE', 'WORKASPACE' ) );
#105 = EDGE_LOOP ( 'NONE', ( #231 ) ) ;
#106 =( NAMED_UNIT ( * ) PLANE_ANGLE_UNIT ( ) SI_UNIT ( $, .RADIAN. ) );
#107 = VERTEX_POINT ( 'NONE', #207 ) ;
#108 = ORIENTED_EDGE ( 'NONE', *, *, #234, .F. ) ;
#109 = AXIS2_PLACEMENT_3D ( 'NONE', #264, #9, #226 ) ;
#110 = PERSON_AND_ORGANIZATION_ROLE ( 'creator' ) ;
#111 = APPROVAL ( #20, 'UNSPECIFIED' ) ;
#112 = FACE_OUTER_BOUND ( 'NONE', #132, .T. ) ;
#113 = DIRECTION ( 'NONE',  ( 3.491481338843133355E-15, -1.224646799147353207E-16, 1.000000000000000000 ) ) ;
#114 = CARTESIAN_POINT ( 'NONE',  ( 1.812262323219672088E-14, -6.356560548256250374E-16, 5.190525588832580084 ) ) ;
#115 = EDGE_LOOP ( 'NONE', ( #37 ) ) ;
#116 = EDGE_CURVE ( 'NONE', #152, #152, #164, .T. ) ;
#117 = AXIS2_PLACEMENT_3D ( 'NONE', #10, #95, #72 ) ;
#118 = FACE_OUTER_BOUND ( 'NONE', #79, .T. ) ;
#119 = CARTESIAN_POINT ( 'NONE',  ( -1.447351835827621351E-31, 5.076626855389809843E-33, -4.145380414111526445E-17 ) ) ;
#120 = APPROVAL_STATUS ( 'not_yet_approved' ) ;
#121 = CARTESIAN_POINT ( 'NONE',  ( 4.311035480981396413E-14, -1.512107695968337660E-15, 12.34729635533384773 ) ) ;
#122 = ADVANCED_FACE ( 'NONE', ( #100 ), #228, .F. ) ;
#123 = CIRCLE ( 'NONE', #23, 0.4556624327025949883 ) ;
#124 = DIRECTION ( 'NONE',  ( -4.275831445896958607E-31, -1.000000000000000000, -1.224646799147353207E-16 ) ) ;
#125 = DIRECTION ( 'NONE',  ( 0.0000000000000000000, 1.000000000000000000, 0.0000000000000000000 ) ) ;
#126 = CC_DESIGN_DATE_AND_TIME_ASSIGNMENT ( #24, #195, ( #187 ) ) ;
#127 = EDGE_LOOP ( 'NONE', ( #205 ) ) ;
#128 = FACE_OUTER_BOUND ( 'NONE', #211, .T. ) ;
#129 = ORIENTED_EDGE ( 'NONE', *, *, #175, .F. ) ;
#130 = DIRECTION ( 'NONE',  ( 0.0000000000000000000, 0.0000000000000000000, 1.000000000000000000 ) ) ;
#131 = PRODUCT_DEFINITION_SHAPE ( 'NONE', 'NONE',  #266 ) ;
#132 = EDGE_LOOP ( 'NONE', ( #167 ) ) ;
#133 = ADVANCED_FACE ( 'NONE', ( #178, #128 ), #35, .T. ) ;
#134 = LOCAL_TIME ( 11, 59, 27.00000000000000000, #83 ) ;
#135 = DIRECTION ( 'NONE',  ( -4.275831445896958607E-31, -1.000000000000000000, -1.224646799147353207E-16 ) ) ;
#136 = CARTESIAN_POINT ( 'NONE',  ( 1.326762908760390423E-13, -4.653657836759941941E-15, 38.00000000000000000 ) ) ;
#137 = PERSON_AND_ORGANIZATION ( #166, #192 ) ;
#138 = ORIENTED_EDGE ( 'NONE', *, *, #175, .T. ) ;
#139 = CIRCLE ( 'NONE', #3, 0.5999999999999993117 ) ;
#140 = ADVANCED_FACE ( 'NONE', ( #296 ), #204, .T. ) ;
#141 = DIRECTION ( 'NONE',  ( -3.491481338843133355E-15, 1.224646799147353207E-16, -1.000000000000000000 ) ) ;
#142 = MANIFOLD_SOLID_BREP ( 'Corps-Déplacer/Copier1[2]', #48 ) ;
#143 = FACE_OUTER_BOUND ( 'NONE', #105, .T. ) ;
#144 = CIRCLE ( 'NONE', #169, 0.4899999999999991029 ) ;
#145 = CONICAL_SURFACE ( 'NONE', #31, 1.200000000000003286, 0.7853981633974453924 ) ;
#146 = CC_DESIGN_APPROVAL ( #153, ( #266 ) ) ;
#147 = COORDINATED_UNIVERSAL_TIME_OFFSET ( 1, 0, .AHEAD. ) ;
#148 = MANIFOLD_SOLID_BREP ( 'Corps-Déplacer/Copier1[1]', #151 ) ;
#149 = PRODUCT_RELATED_PRODUCT_CATEGORY ( 'detail', '', ( #34 ) ) ;
#150 = DIRECTION ( 'NONE',  ( -3.491481338843133355E-15, 1.224646799147353207E-16, -1.000000000000000000 ) ) ;
#151 = CLOSED_SHELL ( 'NONE', ( #122, #38, #171, #82, #6, #98, #157, #255 ) ) ;
#152 = VERTEX_POINT ( 'NONE', #249 ) ;
#153 = APPROVAL ( #161, 'UNSPECIFIED' ) ;
#154 = EDGE_LOOP ( 'NONE', ( #67 ) ) ;
#155 = AXIS2_PLACEMENT_3D ( 'NONE', #232, #33, #125 ) ;
#156 = PERSON_AND_ORGANIZATION_ROLE ( 'creator' ) ;
#157 = ADVANCED_FACE ( 'NONE', ( #193, #87 ), #145, .T. ) ;
#158 = EDGE_LOOP ( 'NONE', ( #177 ) ) ;
#159 = CARTESIAN_POINT ( 'NONE',  ( 0.0000000000000000000, 0.0000000000000000000, 0.0000000000000000000 ) ) ;
#160 = VERTEX_POINT ( 'NONE', #81 ) ;
#161 = APPROVAL_STATUS ( 'not_yet_approved' ) ;
#162 = DIRECTION ( 'NONE',  ( 4.275831445896958607E-31, 1.000000000000000000, 1.224646799147353207E-16 ) ) ;
#163 = CARTESIAN_POINT ( 'NONE',  ( -9.463679131915802403E-32, 0.4556624327025949883, -2.710505431213761085E-17 ) ) ;
#164 = CIRCLE ( 'NONE', #155, 0.5999999999999999778 ) ;
#165 = FACE_BOUND ( 'NONE', #101, .T. ) ;
#166 = PERSON ( 'UNSPECIFIED', 'UNSPECIFIED', 'UNSPECIFIED', ('UNSPECIFIED'), ('UNSPECIFIED'), ('UNSPECIFIED') ) ;
#167 = ORIENTED_EDGE ( 'NONE', *, *, #179, .T. ) ;
#168 = DIRECTION ( 'NONE',  ( 0.0000000000000000000, 1.000000000000000000, 0.0000000000000000000 ) ) ;
#169 = AXIS2_PLACEMENT_3D ( 'NONE', #114, #191, #265 ) ;
#170 = CC_DESIGN_SECURITY_CLASSIFICATION ( #187, ( #4 ) ) ;
#171 = ADVANCED_FACE ( 'NONE', ( #84, #284 ), #66, .T. ) ;
#172 = DIRECTION ( 'NONE',  ( -3.491481338843133355E-15, 1.224646799147353207E-16, -1.000000000000000000 ) ) ;
#173 = CARTESIAN_POINT ( 'NONE',  ( 8.728703347107831416E-16, -3.061616997868382402E-17, 0.2499999999999999445 ) ) ;
#174 = VERTEX_POINT ( 'NONE', #270 ) ;
#175 = EDGE_CURVE ( 'NONE', #285, #285, #55, .T. ) ;
#176 = AXIS2_PLACEMENT_3D ( 'NONE', #276, #113, #135 ) ;
#177 = ORIENTED_EDGE ( 'NONE', *, *, #197, .F. ) ;
#178 = FACE_OUTER_BOUND ( 'NONE', #237, .T. ) ;
#179 = EDGE_CURVE ( 'NONE', #160, #160, #27, .T. ) ;
#180 = FACE_OUTER_BOUND ( 'NONE', #115, .T. ) ;
#181 =( LENGTH_UNIT ( ) NAMED_UNIT ( * ) SI_UNIT ( .MILLI., .METRE. ) );
#182 = DESIGN_CONTEXT ( 'detailed design', #288, 'design' ) ;
#183 = DATE_AND_TIME ( #189, #134 ) ;
#184 = VERTEX_POINT ( 'NONE', #256 ) ;
#185 = CC_DESIGN_PERSON_AND_ORGANIZATION_ASSIGNMENT ( #247, #216, ( #187 ) ) ;
#186 = AXIS2_PLACEMENT_3D ( 'NONE', #68, #241, #162 ) ;
#187 = SECURITY_CLASSIFICATION ( '', '', #290 ) ;
#188 = DIRECTION ( 'NONE',  ( 0.0000000000000000000, 1.000000000000000000, 0.0000000000000000000 ) ) ;
#189 = CALENDAR_DATE ( 2021, 1, 12 ) ;
#190 = DIRECTION ( 'NONE',  ( -3.491481338843133355E-15, 1.224646799147353207E-16, -1.000000000000000000 ) ) ;
#191 = DIRECTION ( 'NONE',  ( -3.491481338843133355E-15, 1.224646799147353207E-16, -1.000000000000000000 ) ) ;
#192 = ORGANIZATION ( 'UNSPECIFIED', 'UNSPECIFIED', '' ) ;
#193 = FACE_OUTER_BOUND ( 'NONE', #300, .T. ) ;
#194 = APPROVAL_DATE_TIME ( #51, #73 ) ;
#195 = DATE_TIME_ROLE ( 'classification_date' ) ;
#196 = CARTESIAN_POINT ( 'NONE',  ( -2.894703671655242701E-31, 1.015325371077961969E-32, -8.290760828223052891E-17 ) ) ;
#197 = EDGE_CURVE ( 'NONE', #107, #107, #267, .T. ) ;
#198 = DIRECTION ( 'NONE',  ( 0.0000000000000000000, 1.000000000000000000, 0.0000000000000000000 ) ) ;
#199 = CARTESIAN_POINT ( 'NONE',  ( 1.326762908760390423E-13, -4.653657836759941941E-15, 38.00000000000000000 ) ) ;
#200 = DIRECTION ( 'NONE',  ( 0.0000000000000000000, 1.000000000000000000, 0.0000000000000000000 ) ) ;
#201 = AXIS2_PLACEMENT_3D ( 'NONE', #199, #94, #168 ) ;
#202 = CARTESIAN_POINT ( 'NONE',  ( 0.0000000000000000000, 0.0000000000000000000, 0.0000000000000000000 ) ) ;
#203 = EDGE_LOOP ( 'NONE', ( #274 ) ) ;
#204 = PLANE ( 'NONE',  #176 ) ;
#205 = ORIENTED_EDGE ( 'NONE', *, *, #229, .T. ) ;
#206 = DIRECTION ( 'NONE',  ( -3.209883240645396738E-31, -1.000000000000000000, -9.035018104045880555E-17 ) ) ;
#207 = CARTESIAN_POINT ( 'NONE',  ( 1.745740669421566678E-14, 0.5999999999999993117, 5.000000000000000000 ) ) ;
#208 = FACE_OUTER_BOUND ( 'NONE', #280, .T. ) ;
#209 = CARTESIAN_POINT ( 'NONE',  ( 0.0000000000000000000, 0.0000000000000000000, 0.0000000000000000000 ) ) ;
#210 = APPROVAL_DATE_TIME ( #22, #153 ) ;
#211 = EDGE_LOOP ( 'NONE', ( #233 ) ) ;
#212 = PERSON_AND_ORGANIZATION_ROLE ( 'design_owner' ) ;
#213 = LOCAL_TIME ( 11, 59, 27.00000000000000000, #21 ) ;
#214 = PERSON_AND_ORGANIZATION ( #166, #192 ) ;
#215 = CARTESIAN_POINT ( 'NONE',  ( 4.189777606611760026E-14, -1.469576158976823947E-15, 12.00000000000000000 ) ) ;
#216 = PERSON_AND_ORGANIZATION_ROLE ( 'classification_officer' ) ;
#217 = ORIENTED_EDGE ( 'NONE', *, *, #26, .T. ) ;
#218 = CALENDAR_DATE ( 2021, 1, 12 ) ;
#219 = FACE_OUTER_BOUND ( 'NONE', #203, .T. ) ;
#220 = CIRCLE ( 'NONE', #201, 1.200000000000003286 ) ;
#221 = APPROVAL_PERSON_ORGANIZATION ( #223, #73, #53 ) ;
#222 = DIRECTION ( 'NONE',  ( 4.275831445896958607E-31, 1.000000000000000000, 1.224646799147353207E-16 ) ) ;
#223 = PERSON_AND_ORGANIZATION ( #166, #192 ) ;
#224 = DIRECTION ( 'NONE',  ( 3.491481338843133355E-15, -1.224646799147353207E-16, 1.000000000000000000 ) ) ;
#225 = CARTESIAN_POINT ( 'NONE',  ( 4.189777606611760026E-14, -1.301042606982605321E-15, 12.00000000000000000 ) ) ;
#226 = DIRECTION ( 'NONE',  ( 0.0000000000000000000, 1.000000000000000000, 0.0000000000000000000 ) ) ;
#227 = VERTEX_POINT ( 'NONE', #14 ) ;
#228 = PLANE ( 'NONE',  #8 ) ;
#229 = EDGE_CURVE ( 'NONE', #184, #184, #220, .T. ) ;
#230 = CARTESIAN_POINT ( 'NONE',  ( 8.728703347107831416E-16, -3.061616997868382402E-17, 0.2499999999999999445 ) ) ;
#231 = ORIENTED_EDGE ( 'NONE', *, *, #229, .F. ) ;
#232 = CARTESIAN_POINT ( 'NONE',  ( 1.745740669421566678E-14, -6.123233995736766282E-16, 5.000000000000000000 ) ) ;
#233 = ORIENTED_EDGE ( 'NONE', *, *, #197, .T. ) ;
#234 = EDGE_CURVE ( 'NONE', #278, #278, #139, .T. ) ;
#235 = APPROVAL_ROLE ( '' ) ;
#236 = APPROVAL_ROLE ( '' ) ;
#237 = EDGE_LOOP ( 'NONE', ( #108 ) ) ;
#238 = DIRECTION ( 'NONE',  ( 1.000000000000000000, 0.0000000000000000000, 0.0000000000000000000 ) ) ;
#239 = ORIENTED_EDGE ( 'NONE', *, *, #78, .T. ) ;
#240 = AXIS2_PLACEMENT_3D ( 'NONE', #246, #13, #97 ) ;
#241 = DIRECTION ( 'NONE',  ( -3.491481338843133355E-15, 1.224646799147353207E-16, -1.000000000000000000 ) ) ;
#242 = CC_DESIGN_PERSON_AND_ORGANIZATION_ASSIGNMENT ( #254, #40, ( #4 ) ) ;
#243 = VERTEX_POINT ( 'NONE', #74 ) ;
#244 = CC_DESIGN_PERSON_AND_ORGANIZATION_ASSIGNMENT ( #69, #156, ( #4 ) ) ;
#245 = CONICAL_SURFACE ( 'NONE', #92, 0.4899999999999991029, 0.5235987755982934866 ) ;
#246 = CARTESIAN_POINT ( 'NONE',  ( 1.745740669421566678E-14, -6.123233995736766282E-16, 5.000000000000000000 ) ) ;
#247 = PERSON_AND_ORGANIZATION ( #166, #192 ) ;
#248 = FACE_BOUND ( 'NONE', #251, .T. ) ;
#249 = CARTESIAN_POINT ( 'NONE',  ( 1.745740669421566678E-14, 0.5999999999999993117, 5.000000000000000000 ) ) ;
#250 = DIRECTION ( 'NONE',  ( -3.491481338843133355E-15, 1.224646799147353207E-16, -1.000000000000000000 ) ) ;
#251 = EDGE_LOOP ( 'NONE', ( #41 ) ) ;
#252 = DIRECTION ( 'NONE',  ( 4.275831445896958607E-31, 1.000000000000000000, 1.224646799147353207E-16 ) ) ;
#253 = CIRCLE ( 'NONE', #271, 0.5203844939755809529 ) ;
#254 = PERSON_AND_ORGANIZATION ( #166, #192 ) ;
#255 = ADVANCED_FACE ( 'NONE', ( #143 ), #12, .F. ) ;
#256 = CARTESIAN_POINT ( 'NONE',  ( 1.326762908760390423E-13, 1.199999999999998845, 38.00000000000000000 ) ) ;
#257 = CC_DESIGN_APPROVAL ( #111, ( #4 ) ) ;
#258 = CARTESIAN_POINT ( 'NONE',  ( 4.189777606611760026E-14, 0.4899999999999986589, 12.00000000000000000 ) ) ;
#259 = DIRECTION ( 'NONE',  ( 0.0000000000000000000, 1.000000000000000000, 0.0000000000000000000 ) ) ;
#260 = EDGE_LOOP ( 'NONE', ( #42 ) ) ;
#261 = ADVANCED_FACE ( 'NONE', ( #96 ), #32, .F. ) ;
#262 = TOROIDAL_SURFACE ( 'NONE', #15, 2.489999999999999769, 2.000000000000000000 ) ;
#263 = LOCAL_TIME ( 11, 59, 27.00000000000000000, #25 ) ;
#264 = CARTESIAN_POINT ( 'NONE',  ( 6.250789252516124325E-14, -2.192481731199788575E-15, 17.90297196486594800 ) ) ;
#265 = DIRECTION ( 'NONE',  ( 0.0000000000000000000, 1.000000000000000000, 0.0000000000000000000 ) ) ;
#266 = PRODUCT_DEFINITION ( 'UNKNOWN', '', #4, #182 ) ;
#267 = CIRCLE ( 'NONE', #240, 0.5999999999999999778 ) ;
#268 = LOCAL_TIME ( 11, 59, 27.00000000000000000, #147 ) ;
#269 = DIRECTION ( 'NONE',  ( -3.491481338843133355E-15, 1.224646799147353207E-16, -1.000000000000000000 ) ) ;
#270 = CARTESIAN_POINT ( 'NONE',  ( 1.316288464743861212E-13, 1.499999999999998668, 37.69999999999999574 ) ) ;
#271 = AXIS2_PLACEMENT_3D ( 'NONE', #121, #250, #198 ) ;
#272 = APPLICATION_CONTEXT ( 'configuration controlled 3d designs of mechanical parts and assemblies' ) ;
#273 = CARTESIAN_POINT ( 'NONE',  ( 1.745740669421566678E-14, 4.499279347985563929E-33, 5.000000000000000000 ) ) ;
#274 = ORIENTED_EDGE ( 'NONE', *, *, #116, .F. ) ;
#275 = CYLINDRICAL_SURFACE ( 'NONE', #299, 1.500000000000000444 ) ;
#276 = CARTESIAN_POINT ( 'NONE',  ( 1.745740669421566678E-14, 4.499279347985563929E-33, 5.000000000000000000 ) ) ;
#277 = AXIS2_PLACEMENT_3D ( 'NONE', #230, #298, #206 ) ;
#278 = VERTEX_POINT ( 'NONE', #1 ) ;
#279 = DIRECTION ( 'NONE',  ( 3.491481338843133355E-15, -1.224646799147353207E-16, 1.000000000000000000 ) ) ;
#280 = EDGE_LOOP ( 'NONE', ( #239 ) ) ;
#281 = DIRECTION ( 'NONE',  ( -3.491481338843133355E-15, 1.224646799147353207E-16, -1.000000000000000000 ) ) ;
#282 = VERTEX_POINT ( 'NONE', #163 ) ;
#283 = EDGE_LOOP ( 'NONE', ( #138 ) ) ;
#284 = FACE_OUTER_BOUND ( 'NONE', #283, .T. ) ;
#285 = VERTEX_POINT ( 'NONE', #258 ) ;
#286 = APPROVAL_PERSON_ORGANIZATION ( #137, #153, #235 ) ;
#287 = CALENDAR_DATE ( 2021, 1, 12 ) ;
#288 = APPLICATION_CONTEXT ( 'configuration controlled 3d designs of mechanical parts and assemblies' ) ;
#289 = EDGE_CURVE ( 'NONE', #282, #282, #123, .T. ) ;
#290 = SECURITY_CLASSIFICATION_LEVEL ( 'unclassified' ) ;
#291 = EDGE_LOOP ( 'NONE', ( #62 ) ) ;
#292 = DIRECTION ( 'NONE',  ( 4.275831445896959482E-31, 1.000000000000000000, 1.224646799147353207E-16 ) ) ;
#293 = AXIS2_PLACEMENT_3D ( 'NONE', #29, #141, #222 ) ;
#294 = CC_DESIGN_PERSON_AND_ORGANIZATION_ASSIGNMENT ( #302, #212, ( #34 ) ) ;
#295 = ADVANCED_BREP_SHAPE_REPRESENTATION ( '200776', ( #148, #142, #19 ), #104 ) ;
#296 = FACE_OUTER_BOUND ( 'NONE', #158, .T. ) ;
#297 = ORIENTED_EDGE ( 'NONE', *, *, #56, .T. ) ;
#298 = DIRECTION ( 'NONE',  ( 3.491481338843133355E-15, -1.224646799147353207E-16, 1.000000000000000000 ) ) ;
#299 = AXIS2_PLACEMENT_3D ( 'NONE', #159, #39, #17 ) ;
#300 = EDGE_LOOP ( 'NONE', ( #52 ) ) ;
#301 = UNCERTAINTY_MEASURE_WITH_UNIT (LENGTH_MEASURE( 1.000000000000000082E-05 ), #181, 'distance_accuracy_value', 'NONE');
#302 = PERSON_AND_ORGANIZATION ( #166, #192 ) ;
#303 = DIRECTION ( 'NONE',  ( 0.0000000000000000000, -1.000000000000000000, 0.0000000000000000000 ) ) ;
ENDSEC;
END-ISO-10303-21;
