ISO-10303-21;
HEADER;
FILE_DESCRIPTION (( 'STEP AP203' ),
    '1' );
FILE_NAME ('200775.step',
    '2021-12-01T10:40:04',
    ( '' ),
    ( '' ),
    'SwSTEP 2.0',
    'SolidWorks 2019',
    '' );
FILE_SCHEMA (( 'CONFIG_CONTROL_DESIGN' ));
ENDSEC;

DATA;
#1 = UNCERTAINTY_MEASURE_WITH_UNIT (LENGTH_MEASURE( 1.000000000000000082E-05 ), #258, 'distance_accuracy_value', 'NONE');
#2 = ORIENTED_EDGE ( 'NONE', *, *, #202, .F. ) ;
#3 = PERSON_AND_ORGANIZATION ( #132, #284 ) ;
#4 = CALENDAR_DATE ( 2021, 1, 12 ) ;
#5 = ADVANCED_FACE ( 'NONE', ( #288 ), #102, .F. ) ;
#6 = AXIS2_PLACEMENT_3D ( 'NONE', #172, #176, #270 ) ;
#7 = EDGE_LOOP ( 'NONE', ( #268 ) ) ;
#8 = COORDINATED_UNIVERSAL_TIME_OFFSET ( 1, 0, .AHEAD. ) ;
#9 = APPROVAL ( #95, 'UNSPECIFIED' ) ;
#10 = CARTESIAN_POINT ( 'NONE',  ( 0.0000000000000000000, 0.0000000000000000000, 0.0000000000000000000 ) ) ;
#11 = DIRECTION ( 'NONE',  ( -3.349443381543022911E-31, -1.000000000000000000, -9.427844978134832527E-17 ) ) ;
#12 = PERSON_AND_ORGANIZATION ( #132, #284 ) ;
#13 = DIRECTION ( 'NONE',  ( -3.491481338843133355E-15, 1.224646799147353207E-16, -1.000000000000000000 ) ) ;
#14 = DIRECTION ( 'NONE',  ( 0.0000000000000000000, 1.000000000000000000, 0.0000000000000000000 ) ) ;
#15 = EDGE_CURVE ( 'NONE', #235, #235, #158, .T. ) ;
#16 = ORIENTED_EDGE ( 'NONE', *, *, #133, .T. ) ;
#17 = FACE_OUTER_BOUND ( 'NONE', #199, .T. ) ;
#18 = CYLINDRICAL_SURFACE ( 'NONE', #273, 0.4799999999999997047 ) ;
#19 = PERSON_AND_ORGANIZATION_ROLE ( 'creator' ) ;
#20 = MANIFOLD_SOLID_BREP ( 'Corps-Déplacer/Copier1[1]', #23 ) ;
#21 = APPROVAL_PERSON_ORGANIZATION ( #12, #287, #122 ) ;
#22 = CARTESIAN_POINT ( 'NONE',  ( 4.311035480981395782E-14, -1.512107695968337463E-15, 12.34729635533384595 ) ) ;
#23 = CLOSED_SHELL ( 'NONE', ( #173, #242, #26, #207, #209, #101, #79, #260 ) ) ;
#24 = VERTEX_POINT ( 'NONE', #282 ) ;
#25 = EDGE_LOOP ( 'NONE', ( #283 ) ) ;
#26 = ADVANCED_FACE ( 'NONE', ( #222, #128 ), #18, .T. ) ;
#27 = CARTESIAN_POINT ( 'NONE',  ( 1.316288464743861212E-13, 1.499999999999998668, 37.69999999999999574 ) ) ;
#28 = AXIS2_PLACEMENT_3D ( 'NONE', #169, #285, #151 ) ;
#29 = ORIENTED_EDGE ( 'NONE', *, *, #153, .T. ) ;
#30 = APPROVAL_STATUS ( 'not_yet_approved' ) ;
#31 = DIRECTION ( 'NONE',  ( -3.491481338843133355E-15, 1.224646799147353207E-16, -1.000000000000000000 ) ) ;
#32 = DIRECTION ( 'NONE',  ( 3.491481338843133355E-15, -1.224646799147353207E-16, 1.000000000000000000 ) ) ;
#33 = DIRECTION ( 'NONE',  ( 0.0000000000000000000, 0.0000000000000000000, 1.000000000000000000 ) ) ;
#34 = CARTESIAN_POINT ( 'NONE',  ( -1.867087899349700068E-31, 6.548862782760803842E-33, -5.347552279824988792E-17 ) ) ;
#35 = PRODUCT_DEFINITION_FORMATION_WITH_SPECIFIED_SOURCE ( 'ANY', '', #51, .NOT_KNOWN. ) ;
#36 = CARTESIAN_POINT ( 'NONE',  ( 1.803191188610839575E-14, -6.324743291094502006E-16, 5.164544826719046355 ) ) ;
#37 = FACE_OUTER_BOUND ( 'NONE', #245, .T. ) ;
#38 = DIRECTION ( 'NONE',  ( 0.0000000000000000000, 1.000000000000000000, 0.0000000000000000000 ) ) ;
#39 = CARTESIAN_POINT ( 'NONE',  ( 1.326762908760390423E-13, -4.653657836759941941E-15, 38.00000000000000000 ) ) ;
#40 = FACE_OUTER_BOUND ( 'NONE', #124, .T. ) ;
#41 = DIRECTION ( 'NONE',  ( -3.491481338843133355E-15, 1.224646799147353207E-16, -1.000000000000000000 ) ) ;
#42 = AXIS2_PLACEMENT_3D ( 'NONE', #186, #181, #68 ) ;
#43 = EDGE_CURVE ( 'NONE', #99, #99, #191, .T. ) ;
#44 = DIRECTION ( 'NONE',  ( -4.275831445896958607E-31, -1.000000000000000000, -1.224646799147353207E-16 ) ) ;
#45 = DIRECTION ( 'NONE',  ( -3.491481338843133355E-15, 1.224646799147353207E-16, -1.000000000000000000 ) ) ;
#46 = CARTESIAN_POINT ( 'NONE',  ( 1.316288464743861212E-13, -4.616918432785521081E-15, 37.69999999999999574 ) ) ;
#47 = AXIS2_PLACEMENT_3D ( 'NONE', #244, #32, #11 ) ;
#48 = DIRECTION ( 'NONE',  ( 4.275831445896958607E-31, 1.000000000000000000, 1.224646799147353207E-16 ) ) ;
#49 = ORIENTED_EDGE ( 'NONE', *, *, #213, .F. ) ;
#50 = DIRECTION ( 'NONE',  ( -3.491481338843133355E-15, 1.224646799147353207E-16, -1.000000000000000000 ) ) ;
#51 = PRODUCT ( '200775', '200775', '', ( #223 ) ) ;
#52 = AXIS2_PLACEMENT_3D ( 'NONE', #10, #33, #272 ) ;
#53 = ORIENTED_EDGE ( 'NONE', *, *, #43, .T. ) ;
#54 = PRODUCT_RELATED_PRODUCT_CATEGORY ( 'detail', '', ( #51 ) ) ;
#55 = EDGE_LOOP ( 'NONE', ( #90 ) ) ;
#56 = FACE_OUTER_BOUND ( 'NONE', #78, .T. ) ;
#57 = PERSON_AND_ORGANIZATION ( #132, #284 ) ;
#58 = APPROVAL_ROLE ( '' ) ;
#59 = DIRECTION ( 'NONE',  ( -3.491481338843133355E-15, 1.224646799147353207E-16, -1.000000000000000000 ) ) ;
#60 = APPLICATION_CONTEXT ( 'configuration controlled 3d designs of mechanical parts and assemblies' ) ;
#61 = CC_DESIGN_APPROVAL ( #179, ( #35 ) ) ;
#62 = PERSON_AND_ORGANIZATION_ROLE ( 'classification_officer' ) ;
#63 = DIRECTION ( 'NONE',  ( 3.491481338843133355E-15, -1.224646799147353207E-16, 1.000000000000000000 ) ) ;
#64 = FACE_BOUND ( 'NONE', #89, .T. ) ;
#65 = AXIS2_PLACEMENT_3D ( 'NONE', #256, #72, #44 ) ;
#66 = PERSON_AND_ORGANIZATION_ROLE ( 'design_supplier' ) ;
#67 = CONICAL_SURFACE ( 'NONE', #247, 1.499999999999997558, 0.1745329251994258701 ) ;
#68 = DIRECTION ( 'NONE',  ( 0.0000000000000000000, 1.000000000000000000, 0.0000000000000000000 ) ) ;
#69 = APPROVAL_ROLE ( '' ) ;
#70 = DIRECTION ( 'NONE',  ( -3.491481338843133355E-15, 1.224646799147353207E-16, -1.000000000000000000 ) ) ;
#71 = COORDINATED_UNIVERSAL_TIME_OFFSET ( 1, 0, .AHEAD. ) ;
#72 = DIRECTION ( 'NONE',  ( 3.491481338843133355E-15, -1.224646799147353207E-16, 1.000000000000000000 ) ) ;
#73 = VERTEX_POINT ( 'NONE', #140 ) ;
#74 = CARTESIAN_POINT ( 'NONE',  ( 1.745740669421566678E-14, 0.5749999999999992895, 5.000000000000000000 ) ) ;
#75 = CIRCLE ( 'NONE', #119, 0.4799999999999992606 ) ;
#76 = CARTESIAN_POINT ( 'NONE',  ( 8.728703347107833388E-16, 0.5749999999999992895, 0.2500000000000000000 ) ) ;
#77 = VERTEX_POINT ( 'NONE', #76 ) ;
#78 = EDGE_LOOP ( 'NONE', ( #220 ) ) ;
#79 = ADVANCED_FACE ( 'NONE', ( #216, #64 ), #92, .T. ) ;
#80 = AXIS2_PLACEMENT_3D ( 'NONE', #257, #232, #93 ) ;
#81 = EDGE_LOOP ( 'NONE', ( #197 ) ) ;
#82 = EDGE_CURVE ( 'NONE', #24, #24, #75, .T. ) ;
#83 = DIRECTION ( 'NONE',  ( 0.0000000000000000000, 1.000000000000000000, 0.0000000000000000000 ) ) ;
#84 = SECURITY_CLASSIFICATION_LEVEL ( 'unclassified' ) ;
#85 = CYLINDRICAL_SURFACE ( 'NONE', #6, 1.500000000000000444 ) ;
#86 = CIRCLE ( 'NONE', #302, 0.4306624327025950771 ) ;
#87 = PERSON_AND_ORGANIZATION ( #132, #284 ) ;
#88 = CALENDAR_DATE ( 2021, 1, 12 ) ;
#89 = EDGE_LOOP ( 'NONE', ( #224 ) ) ;
#90 = ORIENTED_EDGE ( 'NONE', *, *, #133, .F. ) ;
#91 = CIRCLE ( 'NONE', #80, 0.5749999999999992895 ) ;
#92 = CONICAL_SURFACE ( 'NONE', #114, 1.200000000000003286, 0.7853981633974453924 ) ;
#93 = DIRECTION ( 'NONE',  ( 3.349443381543022911E-31, 1.000000000000000000, 9.427844978134832527E-17 ) ) ;
#94 = CC_DESIGN_PERSON_AND_ORGANIZATION_ASSIGNMENT ( #269, #62, ( #234 ) ) ;
#95 = APPROVAL_STATUS ( 'not_yet_approved' ) ;
#96 = VERTEX_POINT ( 'NONE', #279 ) ;
#97 = AXIS2_PLACEMENT_3D ( 'NONE', #36, #196, #38 ) ;
#98 = EDGE_LOOP ( 'NONE', ( #16 ) ) ;
#99 = VERTEX_POINT ( 'NONE', #277 ) ;
#100 = CARTESIAN_POINT ( 'NONE',  ( -1.892735826383161575E-31, 0.4306624327025950771, -5.421010862427522170E-17 ) ) ;
#101 = ADVANCED_FACE ( 'NONE', ( #56, #37 ), #85, .T. ) ;
#102 = PLANE ( 'NONE',  #291 ) ;
#103 = FACE_OUTER_BOUND ( 'NONE', #212, .T. ) ;
#104 = DIRECTION ( 'NONE',  ( 0.0000000000000000000, 1.000000000000000000, 0.0000000000000000000 ) ) ;
#105 = FACE_BOUND ( 'NONE', #165, .T. ) ;
#106 = ADVANCED_FACE ( 'NONE', ( #152 ), #131, .T. ) ;
#107 = DATE_AND_TIME ( #88, #189 ) ;
#108 = ORIENTED_EDGE ( 'NONE', *, *, #15, .F. ) ;
#109 = CC_DESIGN_PERSON_AND_ORGANIZATION_ASSIGNMENT ( #297, #66, ( #35 ) ) ;
#110 = DATE_TIME_ROLE ( 'creation_date' ) ;
#111 = DIRECTION ( 'NONE',  ( 0.0000000000000000000, -1.000000000000000000, 0.0000000000000000000 ) ) ;
#112 = CARTESIAN_POINT ( 'NONE',  ( 0.0000000000000000000, 0.0000000000000000000, 0.0000000000000000000 ) ) ;
#113 = FACE_BOUND ( 'NONE', #127, .T. ) ;
#114 = AXIS2_PLACEMENT_3D ( 'NONE', #39, #135, #14 ) ;
#115 = PRODUCT_DEFINITION_SHAPE ( 'NONE', 'NONE',  #237 ) ;
#116 = CARTESIAN_POINT ( 'NONE',  ( 4.189777606611760026E-14, 0.4799999999999986500, 12.00000000000000000 ) ) ;
#117 = MANIFOLD_SOLID_BREP ( 'Corps-Déplacer/Copier1[2]', #255 ) ;
#118 = VERTEX_POINT ( 'NONE', #100 ) ;
#119 = AXIS2_PLACEMENT_3D ( 'NONE', #195, #249, #83 ) ;
#120 = ADVANCED_FACE ( 'NONE', ( #200, #145 ), #218, .T. ) ;
#121 = CARTESIAN_POINT ( 'NONE',  ( 4.311035480981395782E-14, 0.5103844939755807220, 12.34729635533384595 ) ) ;
#122 = APPROVAL_ROLE ( '' ) ;
#123 = EDGE_LOOP ( 'NONE', ( #2 ) ) ;
#124 = EDGE_LOOP ( 'NONE', ( #146 ) ) ;
#125 = FACE_OUTER_BOUND ( 'NONE', #254, .T. ) ;
#126 = LOCAL_TIME ( 11, 40, 4.000000000000000000, #8 ) ;
#127 = EDGE_LOOP ( 'NONE', ( #252 ) ) ;
#128 = FACE_OUTER_BOUND ( 'NONE', #98, .T. ) ;
#129 = APPLICATION_PROTOCOL_DEFINITION ( 'international standard', 'config_control_design', 1994, #267 ) ;
#130 = PERSON_AND_ORGANIZATION ( #132, #284 ) ;
#131 = PLANE ( 'NONE',  #298 ) ;
#132 = PERSON ( 'UNSPECIFIED', 'UNSPECIFIED', 'UNSPECIFIED', ('UNSPECIFIED'), ('UNSPECIFIED'), ('UNSPECIFIED') ) ;
#133 = EDGE_CURVE ( 'NONE', #164, #164, #208, .T. ) ;
#134 = CIRCLE ( 'NONE', #163, 0.5103844939755822763 ) ;
#135 = DIRECTION ( 'NONE',  ( -3.491481338843133355E-15, 1.224646799147353207E-16, -1.000000000000000000 ) ) ;
#136 = CC_DESIGN_PERSON_AND_ORGANIZATION_ASSIGNMENT ( #57, #148, ( #237 ) ) ;
#137 = AXIS2_PLACEMENT_3D ( 'NONE', #289, #13, #286 ) ;
#138 = FACE_OUTER_BOUND ( 'NONE', #55, .T. ) ;
#139 = EDGE_LOOP ( 'NONE', ( #296 ) ) ;
#140 = CARTESIAN_POINT ( 'NONE',  ( 1.326762908760390423E-13, 1.199999999999998845, 38.00000000000000000 ) ) ;
#141 = CALENDAR_DATE ( 2021, 1, 12 ) ;
#142 = VERTEX_POINT ( 'NONE', #121 ) ;
#143 = CC_DESIGN_APPROVAL ( #9, ( #234 ) ) ;
#144 =( NAMED_UNIT ( * ) PLANE_ANGLE_UNIT ( ) SI_UNIT ( $, .RADIAN. ) );
#145 = FACE_OUTER_BOUND ( 'NONE', #193, .T. ) ;
#146 = ORIENTED_EDGE ( 'NONE', *, *, #183, .F. ) ;
#147 = CC_DESIGN_DATE_AND_TIME_ASSIGNMENT ( #239, #110, ( #237 ) ) ;
#148 = PERSON_AND_ORGANIZATION_ROLE ( 'creator' ) ;
#149 = CIRCLE ( 'NONE', #42, 1.499999999999997558 ) ;
#150 = COORDINATED_UNIVERSAL_TIME_OFFSET ( 1, 0, .AHEAD. ) ;
#151 = DIRECTION ( 'NONE',  ( 0.0000000000000000000, 1.000000000000000000, 0.0000000000000000000 ) ) ;
#152 = FACE_OUTER_BOUND ( 'NONE', #171, .T. ) ;
#153 = EDGE_CURVE ( 'NONE', #259, #259, #210, .T. ) ;
#154 = DIRECTION ( 'NONE',  ( -4.275831445896958607E-31, -1.000000000000000000, -1.224646799147353207E-16 ) ) ;
#155 = LOCAL_TIME ( 11, 40, 4.000000000000000000, #246 ) ;
#156 = FACE_OUTER_BOUND ( 'NONE', #280, .T. ) ;
#157 = EDGE_CURVE ( 'NONE', #96, #96, #149, .T. ) ;
#158 = CIRCLE ( 'NONE', #28, 0.5749999999999999556 ) ;
#159 = FACE_OUTER_BOUND ( 'NONE', #81, .T. ) ;
#160 = CARTESIAN_POINT ( 'NONE',  ( 4.189777606611760026E-14, -1.469576158976823947E-15, 12.00000000000000000 ) ) ;
#161 = DESIGN_CONTEXT ( 'detailed design', #60, 'design' ) ;
#162 = ORIENTED_EDGE ( 'NONE', *, *, #153, .F. ) ;
#163 = AXIS2_PLACEMENT_3D ( 'NONE', #22, #301, #264 ) ;
#164 = VERTEX_POINT ( 'NONE', #116 ) ;
#165 = EDGE_LOOP ( 'NONE', ( #261 ) ) ;
#166 = AXIS2_PLACEMENT_3D ( 'NONE', #180, #274, #295 ) ;
#167 = LOCAL_TIME ( 11, 40, 4.000000000000000000, #71 ) ;
#168 = CC_DESIGN_PERSON_AND_ORGANIZATION_ASSIGNMENT ( #130, #19, ( #35 ) ) ;
#169 = CARTESIAN_POINT ( 'NONE',  ( 1.745740669421566678E-14, -6.123233995736766282E-16, 5.000000000000000000 ) ) ;
#170 = CARTESIAN_POINT ( 'NONE',  ( 0.0000000000000000000, 0.0000000000000000000, 0.0000000000000000000 ) ) ;
#171 = EDGE_LOOP ( 'NONE', ( #236 ) ) ;
#172 = CARTESIAN_POINT ( 'NONE',  ( 0.0000000000000000000, 0.0000000000000000000, 0.0000000000000000000 ) ) ;
#173 = ADVANCED_FACE ( 'NONE', ( #159 ), #303, .F. ) ;
#174 = CARTESIAN_POINT ( 'NONE',  ( 1.745740669421566678E-14, -6.123233995736766282E-16, 5.000000000000000000 ) ) ;
#175 = SHAPE_DEFINITION_REPRESENTATION ( #115, #184 ) ;
#176 = DIRECTION ( 'NONE',  ( -3.491481338843133355E-15, 1.224646799147353207E-16, -1.000000000000000000 ) ) ;
#177 = CARTESIAN_POINT ( 'NONE',  ( 4.189777606611760026E-14, -1.301042606982605321E-15, 12.00000000000000000 ) ) ;
#178 = CIRCLE ( 'NONE', #166, 1.200000000000003286 ) ;
#179 = APPROVAL ( #221, 'UNSPECIFIED' ) ;
#180 = CARTESIAN_POINT ( 'NONE',  ( 1.326762908760390423E-13, -4.653657836759941941E-15, 38.00000000000000000 ) ) ;
#181 = DIRECTION ( 'NONE',  ( -3.491481338843133355E-15, 1.224646799147353207E-16, -1.000000000000000000 ) ) ;
#182 =( GEOMETRIC_REPRESENTATION_CONTEXT ( 3 ) GLOBAL_UNCERTAINTY_ASSIGNED_CONTEXT ( ( #1 ) ) GLOBAL_UNIT_ASSIGNED_CONTEXT ( ( #258, #144, #211 ) ) REPRESENTATION_CONTEXT ( 'NONE', 'WORKASPACE' ) );
#183 = EDGE_CURVE ( 'NONE', #77, #77, #91, .T. ) ;
#184 = ADVANCED_BREP_SHAPE_REPRESENTATION ( '200775', ( #20, #117, #52 ), #182 ) ;
#185 = CARTESIAN_POINT ( 'NONE',  ( -3.734175798699400137E-31, 1.309772556552160768E-32, -1.069510455964997758E-16 ) ) ;
#186 = CARTESIAN_POINT ( 'NONE',  ( 6.270590427156639929E-14, -2.199427048327246152E-15, 17.95968478306212646 ) ) ;
#187 = COORDINATED_UNIVERSAL_TIME_OFFSET ( 1, 0, .AHEAD. ) ;
#188 = CC_DESIGN_DATE_AND_TIME_ASSIGNMENT ( #240, #276, ( #234 ) ) ;
#189 = LOCAL_TIME ( 11, 40, 4.000000000000000000, #150 ) ;
#190 = ORIENTED_EDGE ( 'NONE', *, *, #183, .T. ) ;
#191 = CIRCLE ( 'NONE', #262, 0.5749999999999999556 ) ;
#192 = APPROVAL_PERSON_ORGANIZATION ( #3, #9, #69 ) ;
#193 = EDGE_LOOP ( 'NONE', ( #190 ) ) ;
#194 = CYLINDRICAL_SURFACE ( 'NONE', #198, 0.5749999999999996225 ) ;
#195 = CARTESIAN_POINT ( 'NONE',  ( 1.803191188610839575E-14, -6.324743291094502006E-16, 5.164544826719046355 ) ) ;
#196 = DIRECTION ( 'NONE',  ( -3.491481338843133355E-15, 1.224646799147353207E-16, -1.000000000000000000 ) ) ;
#197 = ORIENTED_EDGE ( 'NONE', *, *, #15, .T. ) ;
#198 = AXIS2_PLACEMENT_3D ( 'NONE', #170, #31, #215 ) ;
#199 = EDGE_LOOP ( 'NONE', ( #290 ) ) ;
#200 = FACE_BOUND ( 'NONE', #123, .T. ) ;
#201 = DATE_AND_TIME ( #141, #293 ) ;
#202 = EDGE_CURVE ( 'NONE', #118, #118, #86, .T. ) ;
#203 = CARTESIAN_POINT ( 'NONE',  ( 6.270590427156639929E-14, -2.199427048327246152E-15, 17.95968478306212646 ) ) ;
#204 = APPROVAL_PERSON_ORGANIZATION ( #251, #179, #58 ) ;
#205 = DIRECTION ( 'NONE',  ( 0.0000000000000000000, 1.000000000000000000, 0.0000000000000000000 ) ) ;
#206 = CALENDAR_DATE ( 2021, 1, 12 ) ;
#207 = ADVANCED_FACE ( 'NONE', ( #138, #275 ), #278, .F. ) ;
#208 = CIRCLE ( 'NONE', #230, 0.4800000000000000933 ) ;
#209 = ADVANCED_FACE ( 'NONE', ( #113, #17 ), #67, .T. ) ;
#210 = CIRCLE ( 'NONE', #292, 1.500000000000003331 ) ;
#211 =( NAMED_UNIT ( * ) SI_UNIT ( $, .STERADIAN. ) SOLID_ANGLE_UNIT ( ) );
#212 = EDGE_LOOP ( 'NONE', ( #49 ) ) ;
#213 = EDGE_CURVE ( 'NONE', #73, #73, #178, .T. ) ;
#214 = DATE_AND_TIME ( #266, #126 ) ;
#215 = DIRECTION ( 'NONE',  ( 4.275831445896958607E-31, 1.000000000000000000, 1.224646799147353207E-16 ) ) ;
#216 = FACE_OUTER_BOUND ( 'NONE', #243, .T. ) ;
#217 = PLANE ( 'NONE',  #137 ) ;
#218 = CONICAL_SURFACE ( 'NONE', #47, 0.5749999999999992895, 0.5235987755982922653 ) ;
#219 = CC_DESIGN_SECURITY_CLASSIFICATION ( #234, ( #35 ) ) ;
#220 = ORIENTED_EDGE ( 'NONE', *, *, #157, .F. ) ;
#221 = APPROVAL_STATUS ( 'not_yet_approved' ) ;
#222 = FACE_OUTER_BOUND ( 'NONE', #25, .T. ) ;
#223 = MECHANICAL_CONTEXT ( 'NONE', #267, 'mechanical' ) ;
#224 = ORIENTED_EDGE ( 'NONE', *, *, #213, .T. ) ;
#225 = APPLICATION_PROTOCOL_DEFINITION ( 'international standard', 'config_control_design', 1994, #60 ) ;
#226 = CC_DESIGN_APPROVAL ( #287, ( #237 ) ) ;
#227 = DIRECTION ( 'NONE',  ( -4.275831445896958607E-31, -1.000000000000000000, -1.224646799147353207E-16 ) ) ;
#228 = DIRECTION ( 'NONE',  ( -3.491481338843133355E-15, 1.224646799147353207E-16, -1.000000000000000000 ) ) ;
#229 = DIRECTION ( 'NONE',  ( 4.275831445896958607E-31, 1.000000000000000000, 1.224646799147353207E-16 ) ) ;
#230 = AXIS2_PLACEMENT_3D ( 'NONE', #160, #45, #205 ) ;
#231 = EDGE_CURVE ( 'NONE', #142, #142, #134, .T. ) ;
#232 = DIRECTION ( 'NONE',  ( -3.491481338843133355E-15, 1.224646799147353207E-16, -1.000000000000000000 ) ) ;
#233 = CONICAL_SURFACE ( 'NONE', #97, 0.4799999999999992606, 0.5235987755982939307 ) ;
#234 = SECURITY_CLASSIFICATION ( '', '', #84 ) ;
#235 = VERTEX_POINT ( 'NONE', #74 ) ;
#236 = ORIENTED_EDGE ( 'NONE', *, *, #43, .F. ) ;
#237 = PRODUCT_DEFINITION ( 'UNKNOWN', '', #35, #161 ) ;
#238 = DIRECTION ( 'NONE',  ( 0.0000000000000000000, 1.000000000000000000, 0.0000000000000000000 ) ) ;
#239 = DATE_AND_TIME ( #4, #155 ) ;
#240 = DATE_AND_TIME ( #206, #167 ) ;
#241 = AXIS2_PLACEMENT_3D ( 'NONE', #177, #228, #229 ) ;
#242 = ADVANCED_FACE ( 'NONE', ( #125, #105 ), #233, .T. ) ;
#243 = EDGE_LOOP ( 'NONE', ( #162 ) ) ;
#244 = CARTESIAN_POINT ( 'NONE',  ( 8.728703347107831416E-16, -3.061616997868382402E-17, 0.2499999999999999445 ) ) ;
#245 = EDGE_LOOP ( 'NONE', ( #29 ) ) ;
#246 = COORDINATED_UNIVERSAL_TIME_OFFSET ( 1, 0, .AHEAD. ) ;
#247 = AXIS2_PLACEMENT_3D ( 'NONE', #203, #299, #111 ) ;
#248 = APPROVAL_DATE_TIME ( #107, #179 ) ;
#249 = DIRECTION ( 'NONE',  ( -3.491481338843133355E-15, 1.224646799147353207E-16, -1.000000000000000000 ) ) ;
#250 = APPROVAL_DATE_TIME ( #201, #9 ) ;
#251 = PERSON_AND_ORGANIZATION ( #132, #284 ) ;
#252 = ORIENTED_EDGE ( 'NONE', *, *, #231, .F. ) ;
#253 = PERSON_AND_ORGANIZATION_ROLE ( 'design_owner' ) ;
#254 = EDGE_LOOP ( 'NONE', ( #108 ) ) ;
#255 = CLOSED_SHELL ( 'NONE', ( #5, #120, #281, #106 ) ) ;
#256 = CARTESIAN_POINT ( 'NONE',  ( 1.745740669421566678E-14, 4.311809375152831043E-33, 5.000000000000000000 ) ) ;
#257 = CARTESIAN_POINT ( 'NONE',  ( 8.728703347107831416E-16, -3.061616997868382402E-17, 0.2499999999999999445 ) ) ;
#258 =( LENGTH_UNIT ( ) NAMED_UNIT ( * ) SI_UNIT ( .MILLI., .METRE. ) );
#259 = VERTEX_POINT ( 'NONE', #27 ) ;
#260 = ADVANCED_FACE ( 'NONE', ( #103 ), #217, .F. ) ;
#261 = ORIENTED_EDGE ( 'NONE', *, *, #82, .T. ) ;
#262 = AXIS2_PLACEMENT_3D ( 'NONE', #174, #59, #104 ) ;
#263 = APPROVAL_DATE_TIME ( #214, #287 ) ;
#264 = DIRECTION ( 'NONE',  ( 0.0000000000000000000, 1.000000000000000000, 0.0000000000000000000 ) ) ;
#265 = DIRECTION ( 'NONE',  ( 4.275831445896958607E-31, 1.000000000000000000, 1.224646799147352961E-16 ) ) ;
#266 = CALENDAR_DATE ( 2021, 1, 12 ) ;
#267 = APPLICATION_CONTEXT ( 'configuration controlled 3d designs of mechanical parts and assemblies' ) ;
#268 = ORIENTED_EDGE ( 'NONE', *, *, #231, .T. ) ;
#269 = PERSON_AND_ORGANIZATION ( #132, #284 ) ;
#270 = DIRECTION ( 'NONE',  ( 4.275831445896958607E-31, 1.000000000000000000, 1.224646799147353207E-16 ) ) ;
#271 = DIRECTION ( 'NONE',  ( 3.491481338843133355E-15, -1.224646799147353207E-16, 1.000000000000000000 ) ) ;
#272 = DIRECTION ( 'NONE',  ( 1.000000000000000000, 0.0000000000000000000, 0.0000000000000000000 ) ) ;
#273 = AXIS2_PLACEMENT_3D ( 'NONE', #112, #41, #265 ) ;
#274 = DIRECTION ( 'NONE',  ( -3.491481338843133355E-15, 1.224646799147353207E-16, -1.000000000000000000 ) ) ;
#275 = FACE_OUTER_BOUND ( 'NONE', #7, .T. ) ;
#276 = DATE_TIME_ROLE ( 'classification_date' ) ;
#277 = CARTESIAN_POINT ( 'NONE',  ( 1.745740669421566678E-14, 0.5749999999999992895, 5.000000000000000000 ) ) ;
#278 = TOROIDAL_SURFACE ( 'NONE', #241, 2.479999999999999982, 2.000000000000000000 ) ;
#279 = CARTESIAN_POINT ( 'NONE',  ( 6.270590427156639929E-14, 1.499999999999995559, 17.95968478306212646 ) ) ;
#280 = EDGE_LOOP ( 'NONE', ( #53 ) ) ;
#281 = ADVANCED_FACE ( 'NONE', ( #40, #156 ), #194, .T. ) ;
#282 = CARTESIAN_POINT ( 'NONE',  ( 1.803191188610839575E-14, 0.4799999999999985945, 5.164544826719046355 ) ) ;
#283 = ORIENTED_EDGE ( 'NONE', *, *, #82, .F. ) ;
#284 = ORGANIZATION ( 'UNSPECIFIED', 'UNSPECIFIED', '' ) ;
#285 = DIRECTION ( 'NONE',  ( -3.491481338843133355E-15, 1.224646799147353207E-16, -1.000000000000000000 ) ) ;
#286 = DIRECTION ( 'NONE',  ( 4.275831445896958607E-31, 1.000000000000000000, 1.224646799147353207E-16 ) ) ;
#287 = APPROVAL ( #30, 'UNSPECIFIED' ) ;
#288 = FACE_OUTER_BOUND ( 'NONE', #139, .T. ) ;
#289 = CARTESIAN_POINT ( 'NONE',  ( 1.326762908760390423E-13, 8.998558695971103225E-33, 38.00000000000000000 ) ) ;
#290 = ORIENTED_EDGE ( 'NONE', *, *, #157, .T. ) ;
#291 = AXIS2_PLACEMENT_3D ( 'NONE', #34, #63, #227 ) ;
#292 = AXIS2_PLACEMENT_3D ( 'NONE', #46, #50, #238 ) ;
#293 = LOCAL_TIME ( 11, 40, 4.000000000000000000, #187 ) ;
#294 = CARTESIAN_POINT ( 'NONE',  ( 1.745740669421566678E-14, 4.311809375152831043E-33, 5.000000000000000000 ) ) ;
#295 = DIRECTION ( 'NONE',  ( 0.0000000000000000000, 1.000000000000000000, 0.0000000000000000000 ) ) ;
#296 = ORIENTED_EDGE ( 'NONE', *, *, #202, .T. ) ;
#297 = PERSON_AND_ORGANIZATION ( #132, #284 ) ;
#298 = AXIS2_PLACEMENT_3D ( 'NONE', #294, #271, #154 ) ;
#299 = DIRECTION ( 'NONE',  ( 3.491481338843133355E-15, -1.224646799147353207E-16, 1.000000000000000000 ) ) ;
#300 = CC_DESIGN_PERSON_AND_ORGANIZATION_ASSIGNMENT ( #87, #253, ( #51 ) ) ;
#301 = DIRECTION ( 'NONE',  ( -3.491481338843133355E-15, 1.224646799147353207E-16, -1.000000000000000000 ) ) ;
#302 = AXIS2_PLACEMENT_3D ( 'NONE', #185, #70, #48 ) ;
#303 = PLANE ( 'NONE',  #65 ) ;
ENDSEC;
END-ISO-10303-21;
