ISO-10303-21;
HEADER;
FILE_DESCRIPTION (( 'STEP AP203' ),
    '1' );
FILE_NAME ('200774.step',
    '2021-12-01T10:40:04',
    ( '' ),
    ( '' ),
    'SwSTEP 2.0',
    'SolidWorks 2019',
    '' );
FILE_SCHEMA (( 'CONFIG_CONTROL_DESIGN' ));
ENDSEC;

DATA;
#1 = CARTESIAN_POINT ( 'NONE',  ( 1.745740669421566678E-14, -6.123233995736766282E-16, 5.000000000000000000 ) ) ;
#2 = CARTESIAN_POINT ( 'NONE',  ( 3.961887347097082447E-14, 0.5003844939755800469, 11.34729635533384595 ) ) ;
#3 = ADVANCED_FACE ( 'NONE', ( #285 ), #214, .F. ) ;
#4 = DIRECTION ( 'NONE',  ( 3.491481338843133355E-15, -1.224646799147353207E-16, 1.000000000000000000 ) ) ;
#5 = FACE_OUTER_BOUND ( 'NONE', #204, .T. ) ;
#6 = CIRCLE ( 'NONE', #179, 0.3956624327025949905 ) ;
#7 = DIRECTION ( 'NONE',  ( -3.491481338843133355E-15, 1.224646799147353207E-16, -1.000000000000000000 ) ) ;
#8 = DIRECTION ( 'NONE',  ( 1.000000000000000000, 0.0000000000000000000, 0.0000000000000000000 ) ) ;
#9 = CARTESIAN_POINT ( 'NONE',  ( 8.728703347107831416E-16, -3.061616997868382402E-17, 0.2499999999999999445 ) ) ;
#10 = PLANE ( 'NONE',  #192 ) ;
#11 = ADVANCED_FACE ( 'NONE', ( #50, #47 ), #188, .T. ) ;
#12 = FACE_OUTER_BOUND ( 'NONE', #133, .T. ) ;
#13 = AXIS2_PLACEMENT_3D ( 'NONE', #259, #239, #29 ) ;
#14 = FACE_OUTER_BOUND ( 'NONE', #210, .T. ) ;
#15 = PERSON_AND_ORGANIZATION ( #201, #260 ) ;
#16 = CLOSED_SHELL ( 'NONE', ( #212, #208, #218, #265 ) ) ;
#17 = PRODUCT_DEFINITION_SHAPE ( 'NONE', 'NONE',  #202 ) ;
#18 = ORIENTED_EDGE ( 'NONE', *, *, #156, .T. ) ;
#19 = CIRCLE ( 'NONE', #131, 0.4699999999999999734 ) ;
#20 = VERTEX_POINT ( 'NONE', #139 ) ;
#21 = CYLINDRICAL_SURFACE ( 'NONE', #252, 1.500000000000000444 ) ;
#22 =( NAMED_UNIT ( * ) PLANE_ANGLE_UNIT ( ) SI_UNIT ( $, .RADIAN. ) );
#23 = EDGE_CURVE ( 'NONE', #20, #20, #40, .T. ) ;
#24 = CC_DESIGN_DATE_AND_TIME_ASSIGNMENT ( #90, #86, ( #294 ) ) ;
#25 = VERTEX_POINT ( 'NONE', #48 ) ;
#26 = CIRCLE ( 'NONE', #274, 1.200000000000003286 ) ;
#27 = PRODUCT_DEFINITION_FORMATION_WITH_SPECIFIED_SOURCE ( 'ANY', '', #125, .NOT_KNOWN. ) ;
#28 = EDGE_LOOP ( 'NONE', ( #235 ) ) ;
#29 = DIRECTION ( 'NONE',  ( -4.275831445896958607E-31, -1.000000000000000000, -1.224646799147353207E-16 ) ) ;
#30 = MANIFOLD_SOLID_BREP ( 'Corps-Déplacer/Copier1[1]', #158 ) ;
#31 = MANIFOLD_SOLID_BREP ( 'Corps-Déplacer/Copier1[2]', #16 ) ;
#32 = FACE_OUTER_BOUND ( 'NONE', #253, .T. ) ;
#33 = DIRECTION ( 'NONE',  ( -3.491481338843133355E-15, 1.224646799147353207E-16, -1.000000000000000000 ) ) ;
#34 = MECHANICAL_CONTEXT ( 'NONE', #123, 'mechanical' ) ;
#35 = APPROVAL_ROLE ( '' ) ;
#36 = DIRECTION ( 'NONE',  ( 3.566536934050440917E-31, 1.000000000000000000, 1.003890900449542311E-16 ) ) ;
#37 = COORDINATED_UNIVERSAL_TIME_OFFSET ( 1, 0, .AHEAD. ) ;
#38 = CARTESIAN_POINT ( 'NONE',  ( 3.961887347097082447E-14, -1.389643016053602117E-15, 11.34729635533384595 ) ) ;
#39 = DIRECTION ( 'NONE',  ( -3.491481338843133355E-15, 1.224646799147353207E-16, -1.000000000000000000 ) ) ;
#40 = CIRCLE ( 'NONE', #49, 1.500000000000003331 ) ;
#41 = PERSON_AND_ORGANIZATION ( #201, #260 ) ;
#42 = AXIS2_PLACEMENT_3D ( 'NONE', #213, #280, #51 ) ;
#43 = PERSON_AND_ORGANIZATION ( #201, #260 ) ;
#44 = EDGE_CURVE ( 'NONE', #243, #243, #220, .T. ) ;
#45 = PLANE ( 'NONE',  #13 ) ;
#46 = EDGE_LOOP ( 'NONE', ( #168 ) ) ;
#47 = FACE_OUTER_BOUND ( 'NONE', #186, .T. ) ;
#48 = CARTESIAN_POINT ( 'NONE',  ( 1.788072630929452054E-14, 0.4699999999999986411, 5.121243556529823771 ) ) ;
#49 = AXIS2_PLACEMENT_3D ( 'NONE', #118, #111, #161 ) ;
#50 = FACE_OUTER_BOUND ( 'NONE', #60, .T. ) ;
#51 = DIRECTION ( 'NONE',  ( 0.0000000000000000000, -1.000000000000000000, 0.0000000000000000000 ) ) ;
#52 = FACE_OUTER_BOUND ( 'NONE', #62, .T. ) ;
#53 = DIRECTION ( 'NONE',  ( 0.0000000000000000000, 1.000000000000000000, 0.0000000000000000000 ) ) ;
#54 = APPROVAL_STATUS ( 'not_yet_approved' ) ;
#55 = DIRECTION ( 'NONE',  ( -3.491481338843133355E-15, 1.224646799147353207E-16, -1.000000000000000000 ) ) ;
#56 = DIRECTION ( 'NONE',  ( 4.275831445896958607E-31, 1.000000000000000000, 1.224646799147353207E-16 ) ) ;
#57 = FACE_BOUND ( 'NONE', #302, .T. ) ;
#58 = DATE_AND_TIME ( #273, #216 ) ;
#59 = EDGE_LOOP ( 'NONE', ( #262 ) ) ;
#60 = EDGE_LOOP ( 'NONE', ( #165 ) ) ;
#61 = AXIS2_PLACEMENT_3D ( 'NONE', #9, #99, #36 ) ;
#62 = EDGE_LOOP ( 'NONE', ( #184 ) ) ;
#63 = SECURITY_CLASSIFICATION_LEVEL ( 'unclassified' ) ;
#64 = ADVANCED_FACE ( 'NONE', ( #5, #240 ), #21, .T. ) ;
#65 = VERTEX_POINT ( 'NONE', #67 ) ;
#66 = CONICAL_SURFACE ( 'NONE', #162, 0.5399999999999993694, 0.5235987755982925984 ) ;
#67 = CARTESIAN_POINT ( 'NONE',  ( -1.892735826383160919E-31, 0.3956624327025949905, -5.421010862427521554E-17 ) ) ;
#68 = DESIGN_CONTEXT ( 'detailed design', #138, 'design' ) ;
#69 = CARTESIAN_POINT ( 'NONE',  ( 1.745740669421566678E-14, 0.5399999999999993694, 5.000000000000000000 ) ) ;
#70 = ORIENTED_EDGE ( 'NONE', *, *, #185, .F. ) ;
#71 = EDGE_CURVE ( 'NONE', #112, #112, #26, .T. ) ;
#72 = AXIS2_PLACEMENT_3D ( 'NONE', #100, #268, #194 ) ;
#73 = ADVANCED_BREP_SHAPE_REPRESENTATION ( '200774', ( #30, #31, #266 ), #98 ) ;
#74 = DIRECTION ( 'NONE',  ( -3.491481338843133355E-15, 1.224646799147353207E-16, -1.000000000000000000 ) ) ;
#75 = APPLICATION_PROTOCOL_DEFINITION ( 'international standard', 'config_control_design', 1994, #138 ) ;
#76 = EDGE_CURVE ( 'NONE', #94, #94, #115, .T. ) ;
#77 = CYLINDRICAL_SURFACE ( 'NONE', #141, 0.5399999999999997025 ) ;
#78 = AXIS2_PLACEMENT_3D ( 'NONE', #247, #80, #175 ) ;
#79 = CARTESIAN_POINT ( 'NONE',  ( 0.0000000000000000000, 0.0000000000000000000, 0.0000000000000000000 ) ) ;
#80 = DIRECTION ( 'NONE',  ( -3.491481338843133355E-15, 1.224646799147353207E-16, -1.000000000000000000 ) ) ;
#81 = APPROVAL_ROLE ( '' ) ;
#82 = DIRECTION ( 'NONE',  ( -3.491481338843133355E-15, 1.224646799147353207E-16, -1.000000000000000000 ) ) ;
#83 = AXIS2_PLACEMENT_3D ( 'NONE', #38, #55, #293 ) ;
#84 = ORIENTED_EDGE ( 'NONE', *, *, #116, .T. ) ;
#85 = CC_DESIGN_APPROVAL ( #241, ( #27 ) ) ;
#86 = DATE_TIME_ROLE ( 'classification_date' ) ;
#87 = ORIENTED_EDGE ( 'NONE', *, *, #151, .T. ) ;
#88 = PERSON_AND_ORGANIZATION_ROLE ( 'creator' ) ;
#89 = ORIENTED_EDGE ( 'NONE', *, *, #185, .T. ) ;
#90 = DATE_AND_TIME ( #134, #121 ) ;
#91 = APPROVAL ( #130, 'UNSPECIFIED' ) ;
#92 = CARTESIAN_POINT ( 'NONE',  ( 1.745740669421566678E-14, 0.5399999999999993694, 5.000000000000000000 ) ) ;
#93 = ORIENTED_EDGE ( 'NONE', *, *, #44, .F. ) ;
#94 = VERTEX_POINT ( 'NONE', #2 ) ;
#95 = EDGE_CURVE ( 'NONE', #144, #144, #19, .T. ) ;
#96 = CARTESIAN_POINT ( 'NONE',  ( 8.728703347107833388E-16, 0.5399999999999993694, 0.2500000000000000000 ) ) ;
#97 = VERTEX_POINT ( 'NONE', #96 ) ;
#98 =( GEOMETRIC_REPRESENTATION_CONTEXT ( 3 ) GLOBAL_UNCERTAINTY_ASSIGNED_CONTEXT ( ( #284 ) ) GLOBAL_UNIT_ASSIGNED_CONTEXT ( ( #261, #22, #164 ) ) REPRESENTATION_CONTEXT ( 'NONE', 'WORKASPACE' ) );
#99 = DIRECTION ( 'NONE',  ( -3.491481338843133355E-15, 1.224646799147353207E-16, -1.000000000000000000 ) ) ;
#100 = CARTESIAN_POINT ( 'NONE',  ( 5.941243467912842197E-14, -2.083907685539968187E-15, 17.01639760125830136 ) ) ;
#101 = EDGE_CURVE ( 'NONE', #65, #65, #6, .T. ) ;
#102 = CIRCLE ( 'NONE', #72, 1.499999999999997558 ) ;
#103 = CARTESIAN_POINT ( 'NONE',  ( 1.326762908760390423E-13, 8.998558695971103225E-33, 38.00000000000000000 ) ) ;
#104 = PERSON_AND_ORGANIZATION_ROLE ( 'design_owner' ) ;
#105 = CARTESIAN_POINT ( 'NONE',  ( -3.584521698093005824E-31, 1.257280964158995369E-32, -1.026647817994840121E-16 ) ) ;
#106 = DATE_TIME_ROLE ( 'creation_date' ) ;
#107 = EDGE_LOOP ( 'NONE', ( #233 ) ) ;
#108 = COORDINATED_UNIVERSAL_TIME_OFFSET ( 1, 0, .AHEAD. ) ;
#109 = EDGE_LOOP ( 'NONE', ( #18 ) ) ;
#110 = AXIS2_PLACEMENT_3D ( 'NONE', #281, #140, #143 ) ;
#111 = DIRECTION ( 'NONE',  ( -3.491481338843133355E-15, 1.224646799147353207E-16, -1.000000000000000000 ) ) ;
#112 = VERTEX_POINT ( 'NONE', #264 ) ;
#113 = CARTESIAN_POINT ( 'NONE',  ( 0.0000000000000000000, 0.0000000000000000000, 0.0000000000000000000 ) ) ;
#114 = EDGE_LOOP ( 'NONE', ( #299 ) ) ;
#115 = CIRCLE ( 'NONE', #83, 0.5003844939755814902 ) ;
#116 = EDGE_CURVE ( 'NONE', #25, #25, #231, .T. ) ;
#117 = ORIENTED_EDGE ( 'NONE', *, *, #95, .T. ) ;
#118 = CARTESIAN_POINT ( 'NONE',  ( 1.316288464743861212E-13, -4.616918432785521081E-15, 37.69999999999999574 ) ) ;
#119 = CARTESIAN_POINT ( 'NONE',  ( 3.840629472727446691E-14, -1.347111479062088405E-15, 11.00000000000000000 ) ) ;
#120 = APPROVAL_PERSON_ORGANIZATION ( #127, #147, #81 ) ;
#121 = LOCAL_TIME ( 11, 40, 4.000000000000000000, #108 ) ;
#122 = DIRECTION ( 'NONE',  ( 4.275831445896958607E-31, 1.000000000000000000, 1.224646799147353207E-16 ) ) ;
#123 = APPLICATION_CONTEXT ( 'configuration controlled 3d designs of mechanical parts and assemblies' ) ;
#124 = CARTESIAN_POINT ( 'NONE',  ( 8.728703347107831416E-16, -3.061616997868382402E-17, 0.2499999999999999445 ) ) ;
#125 = PRODUCT ( '200774', '200774', '', ( #34 ) ) ;
#126 = DIRECTION ( 'NONE',  ( -3.491481338843133355E-15, 1.224646799147353207E-16, -1.000000000000000000 ) ) ;
#127 = PERSON_AND_ORGANIZATION ( #201, #260 ) ;
#128 = ADVANCED_FACE ( 'NONE', ( #12, #32 ), #256, .F. ) ;
#129 = DIRECTION ( 'NONE',  ( 0.0000000000000000000, 1.000000000000000000, 0.0000000000000000000 ) ) ;
#130 = APPROVAL_STATUS ( 'not_yet_approved' ) ;
#131 = AXIS2_PLACEMENT_3D ( 'NONE', #119, #7, #149 ) ;
#132 = CC_DESIGN_PERSON_AND_ORGANIZATION_ASSIGNMENT ( #170, #174, ( #202 ) ) ;
#133 = EDGE_LOOP ( 'NONE', ( #166 ) ) ;
#134 = CALENDAR_DATE ( 2021, 1, 12 ) ;
#135 = CC_DESIGN_PERSON_AND_ORGANIZATION_ASSIGNMENT ( #15, #276, ( #294 ) ) ;
#136 = EDGE_LOOP ( 'NONE', ( #93 ) ) ;
#137 = DIRECTION ( 'NONE',  ( 0.0000000000000000000, 1.000000000000000000, 0.0000000000000000000 ) ) ;
#138 = APPLICATION_CONTEXT ( 'configuration controlled 3d designs of mechanical parts and assemblies' ) ;
#139 = CARTESIAN_POINT ( 'NONE',  ( 1.316288464743861212E-13, 1.499999999999998668, 37.69999999999999574 ) ) ;
#140 = DIRECTION ( 'NONE',  ( -3.491481338843133355E-15, 1.224646799147353207E-16, -1.000000000000000000 ) ) ;
#141 = AXIS2_PLACEMENT_3D ( 'NONE', #79, #271, #56 ) ;
#142 = LOCAL_TIME ( 11, 40, 4.000000000000000000, #205 ) ;
#143 = DIRECTION ( 'NONE',  ( 4.275831445896958607E-31, 1.000000000000000000, 1.224646799147353454E-16 ) ) ;
#144 = VERTEX_POINT ( 'NONE', #211 ) ;
#145 = DIRECTION ( 'NONE',  ( 4.275831445896958607E-31, 1.000000000000000000, 1.224646799147353207E-16 ) ) ;
#146 = PLANE ( 'NONE',  #244 ) ;
#147 = APPROVAL ( #153, 'UNSPECIFIED' ) ;
#148 = DATE_AND_TIME ( #225, #297 ) ;
#149 = DIRECTION ( 'NONE',  ( 0.0000000000000000000, 1.000000000000000000, 0.0000000000000000000 ) ) ;
#150 = FACE_OUTER_BOUND ( 'NONE', #242, .T. ) ;
#151 = EDGE_CURVE ( 'NONE', #97, #97, #227, .T. ) ;
#152 = FACE_OUTER_BOUND ( 'NONE', #209, .T. ) ;
#153 = APPROVAL_STATUS ( 'not_yet_approved' ) ;
#154 = CONICAL_SURFACE ( 'NONE', #255, 0.4699999999999993072, 0.5235987755982940417 ) ;
#155 = COORDINATED_UNIVERSAL_TIME_OFFSET ( 1, 0, .AHEAD. ) ;
#156 = EDGE_CURVE ( 'NONE', #193, #193, #215, .T. ) ;
#157 = CALENDAR_DATE ( 2021, 1, 12 ) ;
#158 = CLOSED_SHELL ( 'NONE', ( #3, #245, #11, #128, #282, #64, #234, #173 ) ) ;
#159 = APPROVAL_PERSON_ORGANIZATION ( #178, #241, #35 ) ;
#160 = PERSON_AND_ORGANIZATION_ROLE ( 'design_supplier' ) ;
#161 = DIRECTION ( 'NONE',  ( 0.0000000000000000000, 1.000000000000000000, 0.0000000000000000000 ) ) ;
#162 = AXIS2_PLACEMENT_3D ( 'NONE', #124, #195, #169 ) ;
#163 = EDGE_LOOP ( 'NONE', ( #277 ) ) ;
#164 =( NAMED_UNIT ( * ) SI_UNIT ( $, .STERADIAN. ) SOLID_ANGLE_UNIT ( ) );
#165 = ORIENTED_EDGE ( 'NONE', *, *, #116, .F. ) ;
#166 = ORIENTED_EDGE ( 'NONE', *, *, #95, .F. ) ;
#167 = AXIS2_PLACEMENT_3D ( 'NONE', #269, #74, #200 ) ;
#168 = ORIENTED_EDGE ( 'NONE', *, *, #101, .T. ) ;
#169 = DIRECTION ( 'NONE',  ( -3.566536934050440917E-31, -1.000000000000000000, -1.003890900449542311E-16 ) ) ;
#170 = PERSON_AND_ORGANIZATION ( #201, #260 ) ;
#171 = DIRECTION ( 'NONE',  ( -3.491481338843133355E-15, 1.224646799147353207E-16, -1.000000000000000000 ) ) ;
#172 = CARTESIAN_POINT ( 'NONE',  ( -1.792260849046502912E-31, 6.286404820794976845E-33, -5.133239089974200607E-17 ) ) ;
#173 = ADVANCED_FACE ( 'NONE', ( #14 ), #146, .F. ) ;
#174 = PERSON_AND_ORGANIZATION_ROLE ( 'creator' ) ;
#175 = DIRECTION ( 'NONE',  ( 0.0000000000000000000, 1.000000000000000000, 0.0000000000000000000 ) ) ;
#176 = APPROVAL_DATE_TIME ( #148, #147 ) ;
#177 = DIRECTION ( 'NONE',  ( 0.0000000000000000000, 1.000000000000000000, 0.0000000000000000000 ) ) ;
#178 = PERSON_AND_ORGANIZATION ( #201, #260 ) ;
#179 = AXIS2_PLACEMENT_3D ( 'NONE', #105, #126, #122 ) ;
#180 = CC_DESIGN_PERSON_AND_ORGANIZATION_ASSIGNMENT ( #43, #160, ( #27 ) ) ;
#181 = DATE_AND_TIME ( #157, #142 ) ;
#182 = CC_DESIGN_PERSON_AND_ORGANIZATION_ASSIGNMENT ( #41, #88, ( #27 ) ) ;
#183 = PERSON_AND_ORGANIZATION ( #201, #260 ) ;
#184 = ORIENTED_EDGE ( 'NONE', *, *, #151, .F. ) ;
#185 = EDGE_CURVE ( 'NONE', #283, #283, #102, .T. ) ;
#186 = EDGE_LOOP ( 'NONE', ( #117 ) ) ;
#187 = APPROVAL_ROLE ( '' ) ;
#188 = CYLINDRICAL_SURFACE ( 'NONE', #110, 0.4699999999999995848 ) ;
#189 = AXIS2_PLACEMENT_3D ( 'NONE', #191, #4, #267 ) ;
#190 = PRODUCT_RELATED_PRODUCT_CATEGORY ( 'detail', '', ( #125 ) ) ;
#191 = CARTESIAN_POINT ( 'NONE',  ( 1.745740669421566678E-14, 4.049351413187006783E-33, 5.000000000000000000 ) ) ;
#192 = AXIS2_PLACEMENT_3D ( 'NONE', #172, #288, #248 ) ;
#193 = VERTEX_POINT ( 'NONE', #92 ) ;
#194 = DIRECTION ( 'NONE',  ( 0.0000000000000000000, 1.000000000000000000, 0.0000000000000000000 ) ) ;
#195 = DIRECTION ( 'NONE',  ( 3.491481338843133355E-15, -1.224646799147353207E-16, 1.000000000000000000 ) ) ;
#196 = FACE_OUTER_BOUND ( 'NONE', #28, .T. ) ;
#197 = AXIS2_PLACEMENT_3D ( 'NONE', #249, #171, #53 ) ;
#198 = CC_DESIGN_SECURITY_CLASSIFICATION ( #294, ( #27 ) ) ;
#199 = DIRECTION ( 'NONE',  ( 4.275831445896958607E-31, 1.000000000000000000, 1.224646799147353207E-16 ) ) ;
#200 = DIRECTION ( 'NONE',  ( 0.0000000000000000000, 1.000000000000000000, 0.0000000000000000000 ) ) ;
#201 = PERSON ( 'UNSPECIFIED', 'UNSPECIFIED', 'UNSPECIFIED', ('UNSPECIFIED'), ('UNSPECIFIED'), ('UNSPECIFIED') ) ;
#202 = PRODUCT_DEFINITION ( 'UNKNOWN', '', #27, #68 ) ;
#203 = CONICAL_SURFACE ( 'NONE', #78, 1.200000000000003286, 0.7853981633974453924 ) ;
#204 = EDGE_LOOP ( 'NONE', ( #70 ) ) ;
#205 = COORDINATED_UNIVERSAL_TIME_OFFSET ( 1, 0, .AHEAD. ) ;
#206 = FACE_OUTER_BOUND ( 'NONE', #136, .T. ) ;
#207 = COORDINATED_UNIVERSAL_TIME_OFFSET ( 1, 0, .AHEAD. ) ;
#208 = ADVANCED_FACE ( 'NONE', ( #229, #152 ), #66, .T. ) ;
#209 = EDGE_LOOP ( 'NONE', ( #87 ) ) ;
#210 = EDGE_LOOP ( 'NONE', ( #278 ) ) ;
#211 = CARTESIAN_POINT ( 'NONE',  ( 3.840629472727446691E-14, 0.4699999999999986411, 11.00000000000000000 ) ) ;
#212 = ADVANCED_FACE ( 'NONE', ( #291 ), #10, .F. ) ;
#213 = CARTESIAN_POINT ( 'NONE',  ( 5.941243467912842197E-14, -2.083907685539968187E-15, 17.01639760125830136 ) ) ;
#214 = PLANE ( 'NONE',  #189 ) ;
#215 = CIRCLE ( 'NONE', #167, 0.5400000000000000355 ) ;
#216 = LOCAL_TIME ( 11, 40, 4.000000000000000000, #37 ) ;
#217 = DIRECTION ( 'NONE',  ( -3.491481338843133355E-15, 1.224646799147353207E-16, -1.000000000000000000 ) ) ;
#218 = ADVANCED_FACE ( 'NONE', ( #52, #196 ), #77, .T. ) ;
#219 = FACE_OUTER_BOUND ( 'NONE', #275, .T. ) ;
#220 = CIRCLE ( 'NONE', #270, 0.5400000000000000355 ) ;
#221 = DIRECTION ( 'NONE',  ( 0.0000000000000000000, 0.0000000000000000000, 1.000000000000000000 ) ) ;
#222 = LOCAL_TIME ( 11, 40, 4.000000000000000000, #207 ) ;
#223 = DIRECTION ( 'NONE',  ( -3.491481338843133355E-15, 1.224646799147353207E-16, -1.000000000000000000 ) ) ;
#224 = CARTESIAN_POINT ( 'NONE',  ( 1.326762908760390423E-13, -4.653657836759941941E-15, 38.00000000000000000 ) ) ;
#225 = CALENDAR_DATE ( 2021, 1, 12 ) ;
#226 = DIRECTION ( 'NONE',  ( -3.491481338843133355E-15, 1.224646799147353207E-16, -1.000000000000000000 ) ) ;
#227 = CIRCLE ( 'NONE', #61, 0.5399999999999993694 ) ;
#228 = CC_DESIGN_APPROVAL ( #91, ( #294 ) ) ;
#229 = FACE_BOUND ( 'NONE', #107, .T. ) ;
#230 = PERSON_AND_ORGANIZATION ( #201, #260 ) ;
#231 = CIRCLE ( 'NONE', #197, 0.4699999999999993072 ) ;
#232 = CC_DESIGN_APPROVAL ( #147, ( #202 ) ) ;
#233 = ORIENTED_EDGE ( 'NONE', *, *, #101, .F. ) ;
#234 = ADVANCED_FACE ( 'NONE', ( #150, #295 ), #203, .T. ) ;
#235 = ORIENTED_EDGE ( 'NONE', *, *, #44, .T. ) ;
#236 = APPROVAL_DATE_TIME ( #181, #91 ) ;
#237 = CONICAL_SURFACE ( 'NONE', #42, 1.499999999999997558, 0.1745329251994260367 ) ;
#238 = ORIENTED_EDGE ( 'NONE', *, *, #23, .T. ) ;
#239 = DIRECTION ( 'NONE',  ( 3.491481338843133355E-15, -1.224646799147353207E-16, 1.000000000000000000 ) ) ;
#240 = FACE_OUTER_BOUND ( 'NONE', #246, .T. ) ;
#241 = APPROVAL ( #54, 'UNSPECIFIED' ) ;
#242 = EDGE_LOOP ( 'NONE', ( #303 ) ) ;
#243 = VERTEX_POINT ( 'NONE', #69 ) ;
#244 = AXIS2_PLACEMENT_3D ( 'NONE', #103, #82, #199 ) ;
#245 = ADVANCED_FACE ( 'NONE', ( #272, #57 ), #154, .T. ) ;
#246 = EDGE_LOOP ( 'NONE', ( #238 ) ) ;
#247 = CARTESIAN_POINT ( 'NONE',  ( 1.326762908760390423E-13, -4.653657836759941941E-15, 38.00000000000000000 ) ) ;
#248 = DIRECTION ( 'NONE',  ( -4.275831445896958607E-31, -1.000000000000000000, -1.224646799147353207E-16 ) ) ;
#249 = CARTESIAN_POINT ( 'NONE',  ( 1.788072630929452054E-14, -6.271714529158256697E-16, 5.121243556529823771 ) ) ;
#250 = DIRECTION ( 'NONE',  ( 4.275831445896958607E-31, 1.000000000000000000, 1.224646799147353207E-16 ) ) ;
#251 = CARTESIAN_POINT ( 'NONE',  ( 1.788072630929452054E-14, -6.271714529158256697E-16, 5.121243556529823771 ) ) ;
#252 = AXIS2_PLACEMENT_3D ( 'NONE', #113, #33, #250 ) ;
#253 = EDGE_LOOP ( 'NONE', ( #258 ) ) ;
#254 = DATE_AND_TIME ( #298, #222 ) ;
#255 = AXIS2_PLACEMENT_3D ( 'NONE', #251, #39, #129 ) ;
#256 = TOROIDAL_SURFACE ( 'NONE', #286, 2.469999999999999751, 2.000000000000000000 ) ;
#257 = APPROVAL_PERSON_ORGANIZATION ( #183, #91, #187 ) ;
#258 = ORIENTED_EDGE ( 'NONE', *, *, #76, .T. ) ;
#259 = CARTESIAN_POINT ( 'NONE',  ( 1.745740669421566678E-14, 4.049351413187006783E-33, 5.000000000000000000 ) ) ;
#260 = ORGANIZATION ( 'UNSPECIFIED', 'UNSPECIFIED', '' ) ;
#261 =( LENGTH_UNIT ( ) NAMED_UNIT ( * ) SI_UNIT ( .MILLI., .METRE. ) );
#262 = ORIENTED_EDGE ( 'NONE', *, *, #76, .F. ) ;
#263 = FACE_BOUND ( 'NONE', #59, .T. ) ;
#264 = CARTESIAN_POINT ( 'NONE',  ( 1.326762908760390423E-13, 1.199999999999998845, 38.00000000000000000 ) ) ;
#265 = ADVANCED_FACE ( 'NONE', ( #206 ), #45, .T. ) ;
#266 = AXIS2_PLACEMENT_3D ( 'NONE', #292, #221, #8 ) ;
#267 = DIRECTION ( 'NONE',  ( -4.275831445896958607E-31, -1.000000000000000000, -1.224646799147353207E-16 ) ) ;
#268 = DIRECTION ( 'NONE',  ( -3.491481338843133355E-15, 1.224646799147353207E-16, -1.000000000000000000 ) ) ;
#269 = CARTESIAN_POINT ( 'NONE',  ( 1.745740669421566678E-14, -6.123233995736766282E-16, 5.000000000000000000 ) ) ;
#270 = AXIS2_PLACEMENT_3D ( 'NONE', #1, #217, #137 ) ;
#271 = DIRECTION ( 'NONE',  ( -3.491481338843133355E-15, 1.224646799147353207E-16, -1.000000000000000000 ) ) ;
#272 = FACE_OUTER_BOUND ( 'NONE', #163, .T. ) ;
#273 = CALENDAR_DATE ( 2021, 1, 12 ) ;
#274 = AXIS2_PLACEMENT_3D ( 'NONE', #224, #226, #177 ) ;
#275 = EDGE_LOOP ( 'NONE', ( #89 ) ) ;
#276 = PERSON_AND_ORGANIZATION_ROLE ( 'classification_officer' ) ;
#277 = ORIENTED_EDGE ( 'NONE', *, *, #156, .F. ) ;
#278 = ORIENTED_EDGE ( 'NONE', *, *, #71, .F. ) ;
#279 = SHAPE_DEFINITION_REPRESENTATION ( #17, #73 ) ;
#280 = DIRECTION ( 'NONE',  ( 3.491481338843133355E-15, -1.224646799147353207E-16, 1.000000000000000000 ) ) ;
#281 = CARTESIAN_POINT ( 'NONE',  ( 0.0000000000000000000, 0.0000000000000000000, 0.0000000000000000000 ) ) ;
#282 = ADVANCED_FACE ( 'NONE', ( #263, #219 ), #237, .T. ) ;
#283 = VERTEX_POINT ( 'NONE', #287 ) ;
#284 = UNCERTAINTY_MEASURE_WITH_UNIT (LENGTH_MEASURE( 1.000000000000000082E-05 ), #261, 'distance_accuracy_value', 'NONE');
#285 = FACE_OUTER_BOUND ( 'NONE', #109, .T. ) ;
#286 = AXIS2_PLACEMENT_3D ( 'NONE', #296, #223, #145 ) ;
#287 = CARTESIAN_POINT ( 'NONE',  ( 5.941243467912842197E-14, 1.499999999999995559, 17.01639760125830136 ) ) ;
#288 = DIRECTION ( 'NONE',  ( 3.491481338843133355E-15, -1.224646799147353207E-16, 1.000000000000000000 ) ) ;
#289 = APPLICATION_PROTOCOL_DEFINITION ( 'international standard', 'config_control_design', 1994, #123 ) ;
#290 = CC_DESIGN_DATE_AND_TIME_ASSIGNMENT ( #58, #106, ( #202 ) ) ;
#291 = FACE_OUTER_BOUND ( 'NONE', #46, .T. ) ;
#292 = CARTESIAN_POINT ( 'NONE',  ( 0.0000000000000000000, 0.0000000000000000000, 0.0000000000000000000 ) ) ;
#293 = DIRECTION ( 'NONE',  ( 0.0000000000000000000, 1.000000000000000000, 0.0000000000000000000 ) ) ;
#294 = SECURITY_CLASSIFICATION ( '', '', #63 ) ;
#295 = FACE_BOUND ( 'NONE', #114, .T. ) ;
#296 = CARTESIAN_POINT ( 'NONE',  ( 3.840629472727446691E-14, -1.301042606982605321E-15, 11.00000000000000000 ) ) ;
#297 = LOCAL_TIME ( 11, 40, 4.000000000000000000, #155 ) ;
#298 = CALENDAR_DATE ( 2021, 1, 12 ) ;
#299 = ORIENTED_EDGE ( 'NONE', *, *, #71, .T. ) ;
#300 = CC_DESIGN_PERSON_AND_ORGANIZATION_ASSIGNMENT ( #230, #104, ( #125 ) ) ;
#301 = APPROVAL_DATE_TIME ( #254, #241 ) ;
#302 = EDGE_LOOP ( 'NONE', ( #84 ) ) ;
#303 = ORIENTED_EDGE ( 'NONE', *, *, #23, .F. ) ;
ENDSEC;
END-ISO-10303-21;
