ISO-10303-21;
HEADER;
FILE_DESCRIPTION (( 'STEP AP203' ),
    '1' );
FILE_NAME ('200773.step',
    '2021-12-01T10:40:03',
    ( '' ),
    ( '' ),
    'SwSTEP 2.0',
    'SolidWorks 2019',
    '' );
FILE_SCHEMA (( 'CONFIG_CONTROL_DESIGN' ));
ENDSEC;

DATA;
#1 =( GEOMETRIC_REPRESENTATION_CONTEXT ( 3 ) GLOBAL_UNCERTAINTY_ASSIGNED_CONTEXT ( ( #130 ) ) GLOBAL_UNIT_ASSIGNED_CONTEXT ( ( #69, #233, #23 ) ) REPRESENTATION_CONTEXT ( 'NONE', 'WORKASPACE' ) );
#2 = AXIS2_PLACEMENT_3D ( 'NONE', #293, #86, #151 ) ;
#3 = EDGE_CURVE ( 'NONE', #74, #74, #105, .T. ) ;
#4 = EDGE_LOOP ( 'NONE', ( #223 ) ) ;
#5 = DATE_TIME_ROLE ( 'creation_date' ) ;
#6 = AXIS2_PLACEMENT_3D ( 'NONE', #60, #295, #158 ) ;
#7 = ORIENTED_EDGE ( 'NONE', *, *, #187, .T. ) ;
#8 = EDGE_CURVE ( 'NONE', #165, #165, #252, .T. ) ;
#9 = EDGE_LOOP ( 'NONE', ( #150 ) ) ;
#10 = EDGE_LOOP ( 'NONE', ( #55 ) ) ;
#11 = DIRECTION ( 'NONE',  ( -3.491481338843133355E-15, 1.224646799147353207E-16, -1.000000000000000000 ) ) ;
#12 = EDGE_CURVE ( 'NONE', #52, #52, #14, .T. ) ;
#13 = DIRECTION ( 'NONE',  ( -4.275831445896958607E-31, -1.000000000000000000, -1.224646799147353207E-16 ) ) ;
#14 = CIRCLE ( 'NONE', #58, 1.500000000000003331 ) ;
#15 = DIRECTION ( 'NONE',  ( 0.0000000000000000000, 1.000000000000000000, 0.0000000000000000000 ) ) ;
#16 = DIRECTION ( 'NONE',  ( -3.491481338843133355E-15, 1.224646799147353207E-16, -1.000000000000000000 ) ) ;
#17 = CC_DESIGN_PERSON_AND_ORGANIZATION_ASSIGNMENT ( #208, #94, ( #154 ) ) ;
#18 = PERSON_AND_ORGANIZATION_ROLE ( 'design_owner' ) ;
#19 = DIRECTION ( 'NONE',  ( -3.668437989309024280E-31, -1.000000000000000000, -1.032573497605243334E-16 ) ) ;
#20 = FACE_BOUND ( 'NONE', #88, .T. ) ;
#21 = ORGANIZATION ( 'UNSPECIFIED', 'UNSPECIFIED', '' ) ;
#22 = CC_DESIGN_PERSON_AND_ORGANIZATION_ASSIGNMENT ( #25, #18, ( #241 ) ) ;
#23 =( NAMED_UNIT ( * ) SI_UNIT ( $, .STERADIAN. ) SOLID_ANGLE_UNIT ( ) );
#24 = CARTESIAN_POINT ( 'NONE',  ( 0.0000000000000000000, 0.0000000000000000000, 0.0000000000000000000 ) ) ;
#25 = PERSON_AND_ORGANIZATION ( #132, #21 ) ;
#26 = ADVANCED_FACE ( 'NONE', ( #261 ), #59, .F. ) ;
#27 = AXIS2_PLACEMENT_3D ( 'NONE', #112, #68, #267 ) ;
#28 = DATE_TIME_ROLE ( 'classification_date' ) ;
#29 = CARTESIAN_POINT ( 'NONE',  ( -9.463679131915802403E-32, 0.3806624327025950327, -2.710505431213760469E-17 ) ) ;
#30 = DIRECTION ( 'NONE',  ( -3.491481338843133355E-15, 1.224646799147353207E-16, -1.000000000000000000 ) ) ;
#31 = APPROVAL_ROLE ( '' ) ;
#32 = ORIENTED_EDGE ( 'NONE', *, *, #95, .T. ) ;
#33 = AXIS2_PLACEMENT_3D ( 'NONE', #197, #137, #85 ) ;
#34 = ADVANCED_FACE ( 'NONE', ( #141 ), #156, .F. ) ;
#35 = CC_DESIGN_APPROVAL ( #177, ( #154 ) ) ;
#36 = APPROVAL ( #102, 'UNSPECIFIED' ) ;
#37 = APPROVAL_DATE_TIME ( #164, #272 ) ;
#38 = EDGE_LOOP ( 'NONE', ( #289 ) ) ;
#39 = ORIENTED_EDGE ( 'NONE', *, *, #8, .F. ) ;
#40 = CONICAL_SURFACE ( 'NONE', #2, 0.4649999999999993028, 0.5235987755982929315 ) ;
#41 = CARTESIAN_POINT ( 'NONE',  ( 1.316288464743861212E-13, -4.616918432785521081E-15, 37.69999999999999574 ) ) ;
#42 = DIRECTION ( 'NONE',  ( 4.275831445896958607E-31, 1.000000000000000000, 1.224646799147353207E-16 ) ) ;
#43 = DIRECTION ( 'NONE',  ( -3.491481338843133355E-15, 1.224646799147353207E-16, -1.000000000000000000 ) ) ;
#44 = CARTESIAN_POINT ( 'NONE',  ( -2.574016313212971112E-31, 9.028433873783226480E-33, -7.372275728862537554E-17 ) ) ;
#45 = ADVANCED_FACE ( 'NONE', ( #153, #291 ), #144, .T. ) ;
#46 = CIRCLE ( 'NONE', #72, 0.3806624327025950327 ) ;
#47 = DIRECTION ( 'NONE',  ( -3.491481338843133355E-15, 1.224646799147353207E-16, -1.000000000000000000 ) ) ;
#48 = CARTESIAN_POINT ( 'NONE',  ( 5.951144055233100630E-14, -2.087380344103696581E-15, 17.04475401035639237 ) ) ;
#49 = FACE_OUTER_BOUND ( 'NONE', #198, .T. ) ;
#50 = AXIS2_PLACEMENT_3D ( 'NONE', #224, #139, #109 ) ;
#51 = SHAPE_DEFINITION_REPRESENTATION ( #196, #249 ) ;
#52 = VERTEX_POINT ( 'NONE', #235 ) ;
#53 = CC_DESIGN_APPROVAL ( #272, ( #110 ) ) ;
#54 = DIRECTION ( 'NONE',  ( 0.0000000000000000000, 1.000000000000000000, 0.0000000000000000000 ) ) ;
#55 = ORIENTED_EDGE ( 'NONE', *, *, #181, .F. ) ;
#56 = APPROVAL_PERSON_ORGANIZATION ( #67, #177, #300 ) ;
#57 = PERSON_AND_ORGANIZATION_ROLE ( 'creator' ) ;
#58 = AXIS2_PLACEMENT_3D ( 'NONE', #41, #111, #169 ) ;
#59 = PLANE ( 'NONE',  #155 ) ;
#60 = CARTESIAN_POINT ( 'NONE',  ( 0.0000000000000000000, 0.0000000000000000000, 0.0000000000000000000 ) ) ;
#61 = EDGE_LOOP ( 'NONE', ( #242 ) ) ;
#62 = DIRECTION ( 'NONE',  ( 0.0000000000000000000, 1.000000000000000000, 0.0000000000000000000 ) ) ;
#63 = ADVANCED_FACE ( 'NONE', ( #20, #49 ), #260, .T. ) ;
#64 = DIRECTION ( 'NONE',  ( -3.491481338843133355E-15, 1.224646799147353207E-16, -1.000000000000000000 ) ) ;
#65 = LOCAL_TIME ( 11, 40, 3.000000000000000000, #220 ) ;
#66 = CARTESIAN_POINT ( 'NONE',  ( 1.745740669421566678E-14, -6.123233995736766282E-16, 5.000000000000000000 ) ) ;
#67 = PERSON_AND_ORGANIZATION ( #132, #21 ) ;
#68 = DIRECTION ( 'NONE',  ( 3.491481338843133355E-15, -1.224646799147353207E-16, 1.000000000000000000 ) ) ;
#69 =( LENGTH_UNIT ( ) NAMED_UNIT ( * ) SI_UNIT ( .MILLI., .METRE. ) );
#70 = DATE_AND_TIME ( #271, #200 ) ;
#71 = APPLICATION_PROTOCOL_DEFINITION ( 'international standard', 'config_control_design', 1994, #299 ) ;
#72 = AXIS2_PLACEMENT_3D ( 'NONE', #44, #47, #229 ) ;
#73 = ADVANCED_FACE ( 'NONE', ( #247, #120 ), #170, .T. ) ;
#74 = VERTEX_POINT ( 'NONE', #146 ) ;
#75 = EDGE_CURVE ( 'NONE', #253, #253, #148, .T. ) ;
#76 = DATE_AND_TIME ( #101, #234 ) ;
#77 = CARTESIAN_POINT ( 'NONE',  ( 1.782025207856897045E-14, -6.250503024383757784E-16, 5.103923048454135802 ) ) ;
#78 = ADVANCED_FACE ( 'NONE', ( #207, #180 ), #217, .T. ) ;
#79 = COORDINATED_UNIVERSAL_TIME_OFFSET ( 1, 0, .AHEAD. ) ;
#80 = VERTEX_POINT ( 'NONE', #214 ) ;
#81 = CIRCLE ( 'NONE', #145, 1.200000000000003286 ) ;
#82 = ADVANCED_FACE ( 'NONE', ( #202 ), #138, .F. ) ;
#83 = PERSON_AND_ORGANIZATION ( #132, #21 ) ;
#84 = ORIENTED_EDGE ( 'NONE', *, *, #75, .F. ) ;
#85 = DIRECTION ( 'NONE',  ( 0.0000000000000000000, 1.000000000000000000, 0.0000000000000000000 ) ) ;
#86 = DIRECTION ( 'NONE',  ( -3.491481338843133355E-15, 1.224646799147353207E-16, -1.000000000000000000 ) ) ;
#87 = CIRCLE ( 'NONE', #228, 0.5250000000000000222 ) ;
#88 = EDGE_LOOP ( 'NONE', ( #280 ) ) ;
#89 = FACE_OUTER_BOUND ( 'NONE', #175, .T. ) ;
#90 = ORIENTED_EDGE ( 'NONE', *, *, #3, .T. ) ;
#91 = DIRECTION ( 'NONE',  ( 0.0000000000000000000, 1.000000000000000000, 0.0000000000000000000 ) ) ;
#92 = CARTESIAN_POINT ( 'NONE',  ( 1.745740669421566678E-14, 3.936869429487367326E-33, 5.000000000000000000 ) ) ;
#93 = CARTESIAN_POINT ( 'NONE',  ( 8.728703347107831416E-16, -3.061616997868382402E-17, 0.2499999999999999445 ) ) ;
#94 = PERSON_AND_ORGANIZATION_ROLE ( 'creator' ) ;
#95 = EDGE_CURVE ( 'NONE', #160, #160, #46, .T. ) ;
#96 = FACE_OUTER_BOUND ( 'NONE', #303, .T. ) ;
#97 = DIRECTION ( 'NONE',  ( 1.000000000000000000, 0.0000000000000000000, 0.0000000000000000000 ) ) ;
#98 = DIRECTION ( 'NONE',  ( 4.275831445896958607E-31, 1.000000000000000000, 1.224646799147353207E-16 ) ) ;
#99 = CARTESIAN_POINT ( 'NONE',  ( 0.0000000000000000000, 0.0000000000000000000, 0.0000000000000000000 ) ) ;
#100 = EDGE_CURVE ( 'NONE', #298, #298, #87, .T. ) ;
#101 = CALENDAR_DATE ( 2021, 1, 12 ) ;
#102 = APPROVAL_STATUS ( 'not_yet_approved' ) ;
#103 = ORIENTED_EDGE ( 'NONE', *, *, #100, .F. ) ;
#104 = PERSON_AND_ORGANIZATION_ROLE ( 'classification_officer' ) ;
#105 = CIRCLE ( 'NONE', #118, 0.5249999999999994671 ) ;
#106 = APPROVAL_PERSON_ORGANIZATION ( #239, #272, #31 ) ;
#107 = DIRECTION ( 'NONE',  ( 3.668437989309024280E-31, 1.000000000000000000, 1.032573497605243334E-16 ) ) ;
#108 = DIRECTION ( 'NONE',  ( 3.491481338843133355E-15, -1.224646799147353207E-16, 1.000000000000000000 ) ) ;
#109 = DIRECTION ( 'NONE',  ( 0.0000000000000000000, 1.000000000000000000, 0.0000000000000000000 ) ) ;
#110 = SECURITY_CLASSIFICATION ( '', '', #258 ) ;
#111 = DIRECTION ( 'NONE',  ( -3.491481338843133355E-15, 1.224646799147353207E-16, -1.000000000000000000 ) ) ;
#112 = CARTESIAN_POINT ( 'NONE',  ( 1.745740669421566678E-14, 3.936869429487367326E-33, 5.000000000000000000 ) ) ;
#113 = MANIFOLD_SOLID_BREP ( 'Corps-Déplacer/Copier1[2]', #123 ) ;
#114 = CYLINDRICAL_SURFACE ( 'NONE', #6, 0.4649999999999997469 ) ;
#115 = ADVANCED_FACE ( 'NONE', ( #294, #248 ), #114, .T. ) ;
#116 = APPLICATION_PROTOCOL_DEFINITION ( 'international standard', 'config_control_design', 1994, #194 ) ;
#117 = CARTESIAN_POINT ( 'NONE',  ( 5.951144055233100630E-14, -2.087380344103696581E-15, 17.04475401035639237 ) ) ;
#118 = AXIS2_PLACEMENT_3D ( 'NONE', #134, #43, #107 ) ;
#119 = CIRCLE ( 'NONE', #243, 0.4953844939755816523 ) ;
#120 = FACE_OUTER_BOUND ( 'NONE', #201, .T. ) ;
#121 = DATE_AND_TIME ( #157, #168 ) ;
#122 = DIRECTION ( 'NONE',  ( 0.0000000000000000000, 0.0000000000000000000, 1.000000000000000000 ) ) ;
#123 = CLOSED_SHELL ( 'NONE', ( #26, #63, #287, #174 ) ) ;
#124 = DIRECTION ( 'NONE',  ( -3.491481338843133355E-15, 1.224646799147353207E-16, -1.000000000000000000 ) ) ;
#125 = CIRCLE ( 'NONE', #179, 0.4649999999999993028 ) ;
#126 = CARTESIAN_POINT ( 'NONE',  ( 1.745740669421566678E-14, 0.5249999999999994671, 5.000000000000000000 ) ) ;
#127 = VERTEX_POINT ( 'NONE', #274 ) ;
#128 = APPROVAL_STATUS ( 'not_yet_approved' ) ;
#129 = TOROIDAL_SURFACE ( 'NONE', #143, 2.465000000000000302, 2.000000000000000000 ) ;
#130 = UNCERTAINTY_MEASURE_WITH_UNIT (LENGTH_MEASURE( 1.000000000000000082E-05 ), #69, 'distance_accuracy_value', 'NONE');
#131 = ORIENTED_EDGE ( 'NONE', *, *, #12, .T. ) ;
#132 = PERSON ( 'UNSPECIFIED', 'UNSPECIFIED', 'UNSPECIFIED', ('UNSPECIFIED'), ('UNSPECIFIED'), ('UNSPECIFIED') ) ;
#133 = AXIS2_PLACEMENT_3D ( 'NONE', #231, #16, #42 ) ;
#134 = CARTESIAN_POINT ( 'NONE',  ( 8.728703347107831416E-16, -3.061616997868382402E-17, 0.2499999999999999445 ) ) ;
#135 = CARTESIAN_POINT ( 'NONE',  ( -1.287008156606485556E-31, 4.514216936891613240E-33, -3.686137864431268777E-17 ) ) ;
#136 = CARTESIAN_POINT ( 'NONE',  ( 0.0000000000000000000, 0.0000000000000000000, 0.0000000000000000000 ) ) ;
#137 = DIRECTION ( 'NONE',  ( -3.491481338843133355E-15, 1.224646799147353207E-16, -1.000000000000000000 ) ) ;
#138 = PLANE ( 'NONE',  #27 ) ;
#139 = DIRECTION ( 'NONE',  ( -3.491481338843133355E-15, 1.224646799147353207E-16, -1.000000000000000000 ) ) ;
#140 = FACE_OUTER_BOUND ( 'NONE', #219, .T. ) ;
#141 = FACE_OUTER_BOUND ( 'NONE', #10, .T. ) ;
#142 = ADVANCED_FACE ( 'NONE', ( #263, #203 ), #40, .T. ) ;
#143 = AXIS2_PLACEMENT_3D ( 'NONE', #212, #210, #98 ) ;
#144 = CONICAL_SURFACE ( 'NONE', #290, 1.200000000000003286, 0.7853981633974453924 ) ;
#145 = AXIS2_PLACEMENT_3D ( 'NONE', #266, #64, #62 ) ;
#146 = CARTESIAN_POINT ( 'NONE',  ( 8.728703347107833388E-16, 0.5249999999999994671, 0.2500000000000000000 ) ) ;
#147 = CALENDAR_DATE ( 2021, 1, 12 ) ;
#148 = CIRCLE ( 'NONE', #50, 0.5250000000000000222 ) ;
#149 = CC_DESIGN_PERSON_AND_ORGANIZATION_ASSIGNMENT ( #188, #167, ( #238 ) ) ;
#150 = ORIENTED_EDGE ( 'NONE', *, *, #256, .T. ) ;
#151 = DIRECTION ( 'NONE',  ( 0.0000000000000000000, 1.000000000000000000, 0.0000000000000000000 ) ) ;
#152 = DIRECTION ( 'NONE',  ( 0.0000000000000000000, -1.000000000000000000, 0.0000000000000000000 ) ) ;
#153 = FACE_OUTER_BOUND ( 'NONE', #4, .T. ) ;
#154 = PRODUCT_DEFINITION ( 'UNKNOWN', '', #238, #285 ) ;
#155 = AXIS2_PLACEMENT_3D ( 'NONE', #135, #108, #13 ) ;
#156 = PLANE ( 'NONE',  #133 ) ;
#157 = CALENDAR_DATE ( 2021, 1, 12 ) ;
#158 = DIRECTION ( 'NONE',  ( 4.275831445896959482E-31, 1.000000000000000000, 1.224646799147353207E-16 ) ) ;
#159 = APPROVAL_STATUS ( 'not_yet_approved' ) ;
#160 = VERTEX_POINT ( 'NONE', #29 ) ;
#161 = AXIS2_PLACEMENT_3D ( 'NONE', #99, #166, #257 ) ;
#162 = CYLINDRICAL_SURFACE ( 'NONE', #161, 0.5249999999999998002 ) ;
#163 = CARTESIAN_POINT ( 'NONE',  ( 1.326762908760390423E-13, 1.199999999999998845, 38.00000000000000000 ) ) ;
#164 = DATE_AND_TIME ( #147, #269 ) ;
#165 = VERTEX_POINT ( 'NONE', #255 ) ;
#166 = DIRECTION ( 'NONE',  ( -3.491481338843133355E-15, 1.224646799147353207E-16, -1.000000000000000000 ) ) ;
#167 = PERSON_AND_ORGANIZATION_ROLE ( 'design_supplier' ) ;
#168 = LOCAL_TIME ( 11, 40, 3.000000000000000000, #204 ) ;
#169 = DIRECTION ( 'NONE',  ( 0.0000000000000000000, 1.000000000000000000, 0.0000000000000000000 ) ) ;
#170 = CYLINDRICAL_SURFACE ( 'NONE', #264, 1.500000000000000444 ) ;
#171 = AXIS2_PLACEMENT_3D ( 'NONE', #117, #205, #152 ) ;
#172 = ORIENTED_EDGE ( 'NONE', *, *, #8, .T. ) ;
#173 = DIRECTION ( 'NONE',  ( -4.275831445896958607E-31, -1.000000000000000000, -1.224646799147353207E-16 ) ) ;
#174 = ADVANCED_FACE ( 'NONE', ( #89 ), #244, .T. ) ;
#175 = EDGE_LOOP ( 'NONE', ( #84 ) ) ;
#176 = DIRECTION ( 'NONE',  ( 3.491481338843133355E-15, -1.224646799147353207E-16, 1.000000000000000000 ) ) ;
#177 = APPROVAL ( #159, 'UNSPECIFIED' ) ;
#178 = DIRECTION ( 'NONE',  ( -3.491481338843133355E-15, 1.224646799147353207E-16, -1.000000000000000000 ) ) ;
#179 = AXIS2_PLACEMENT_3D ( 'NONE', #77, #30, #54 ) ;
#180 = FACE_OUTER_BOUND ( 'NONE', #245, .T. ) ;
#181 = EDGE_CURVE ( 'NONE', #236, #236, #81, .T. ) ;
#182 = COORDINATED_UNIVERSAL_TIME_OFFSET ( 1, 0, .AHEAD. ) ;
#183 = AXIS2_PLACEMENT_3D ( 'NONE', #24, #122, #97 ) ;
#184 = MECHANICAL_CONTEXT ( 'NONE', #299, 'mechanical' ) ;
#185 = DIRECTION ( 'NONE',  ( 0.0000000000000000000, 1.000000000000000000, 0.0000000000000000000 ) ) ;
#186 = APPROVAL_DATE_TIME ( #237, #36 ) ;
#187 = EDGE_CURVE ( 'NONE', #80, #80, #211, .T. ) ;
#188 = PERSON_AND_ORGANIZATION ( #132, #21 ) ;
#189 = CC_DESIGN_PERSON_AND_ORGANIZATION_ASSIGNMENT ( #83, #104, ( #110 ) ) ;
#190 = ORIENTED_EDGE ( 'NONE', *, *, #3, .F. ) ;
#191 = ADVANCED_FACE ( 'NONE', ( #140, #251 ), #129, .F. ) ;
#192 = CALENDAR_DATE ( 2021, 1, 12 ) ;
#193 = EDGE_LOOP ( 'NONE', ( #259 ) ) ;
#194 = APPLICATION_CONTEXT ( 'configuration controlled 3d designs of mechanical parts and assemblies' ) ;
#195 = ORIENTED_EDGE ( 'NONE', *, *, #297, .F. ) ;
#196 = PRODUCT_DEFINITION_SHAPE ( 'NONE', 'NONE',  #154 ) ;
#197 = CARTESIAN_POINT ( 'NONE',  ( 3.840629472727446691E-14, -1.347111479062088405E-15, 11.00000000000000000 ) ) ;
#198 = EDGE_LOOP ( 'NONE', ( #90 ) ) ;
#199 = DIRECTION ( 'NONE',  ( 3.491481338843133355E-15, -1.224646799147353207E-16, 1.000000000000000000 ) ) ;
#200 = LOCAL_TIME ( 11, 40, 3.000000000000000000, #182 ) ;
#201 = EDGE_LOOP ( 'NONE', ( #131 ) ) ;
#202 = FACE_OUTER_BOUND ( 'NONE', #193, .T. ) ;
#203 = FACE_BOUND ( 'NONE', #218, .T. ) ;
#204 = COORDINATED_UNIVERSAL_TIME_OFFSET ( 1, 0, .AHEAD. ) ;
#205 = DIRECTION ( 'NONE',  ( 3.491481338843133355E-15, -1.224646799147353207E-16, 1.000000000000000000 ) ) ;
#206 = AXIS2_PLACEMENT_3D ( 'NONE', #92, #199, #173 ) ;
#207 = FACE_BOUND ( 'NONE', #61, .T. ) ;
#208 = PERSON_AND_ORGANIZATION ( #132, #21 ) ;
#209 = MANIFOLD_SOLID_BREP ( 'Corps-Déplacer/Copier1[1]', #282 ) ;
#210 = DIRECTION ( 'NONE',  ( -3.491481338843133355E-15, 1.224646799147353207E-16, -1.000000000000000000 ) ) ;
#211 = CIRCLE ( 'NONE', #277, 1.499999999999997558 ) ;
#212 = CARTESIAN_POINT ( 'NONE',  ( 3.840629472727446691E-14, -1.301042606982605321E-15, 11.00000000000000000 ) ) ;
#213 = PRODUCT_RELATED_PRODUCT_CATEGORY ( 'detail', '', ( #241 ) ) ;
#214 = CARTESIAN_POINT ( 'NONE',  ( 5.951144055233100630E-14, 1.499999999999995559, 17.04475401035639237 ) ) ;
#215 = PERSON_AND_ORGANIZATION ( #132, #21 ) ;
#216 = CC_DESIGN_DATE_AND_TIME_ASSIGNMENT ( #70, #5, ( #154 ) ) ;
#217 = CONICAL_SURFACE ( 'NONE', #171, 1.499999999999997558, 0.1745329251994260367 ) ;
#218 = EDGE_LOOP ( 'NONE', ( #288 ) ) ;
#219 = EDGE_LOOP ( 'NONE', ( #39 ) ) ;
#220 = COORDINATED_UNIVERSAL_TIME_OFFSET ( 1, 0, .AHEAD. ) ;
#221 = CC_DESIGN_SECURITY_CLASSIFICATION ( #110, ( #238 ) ) ;
#222 = ORIENTED_EDGE ( 'NONE', *, *, #75, .T. ) ;
#223 = ORIENTED_EDGE ( 'NONE', *, *, #12, .F. ) ;
#224 = CARTESIAN_POINT ( 'NONE',  ( 1.745740669421566678E-14, -6.123233995736766282E-16, 5.000000000000000000 ) ) ;
#225 = CC_DESIGN_PERSON_AND_ORGANIZATION_ASSIGNMENT ( #215, #57, ( #238 ) ) ;
#226 = EDGE_LOOP ( 'NONE', ( #190 ) ) ;
#227 = DIRECTION ( 'NONE',  ( 0.0000000000000000000, 1.000000000000000000, 0.0000000000000000000 ) ) ;
#228 = AXIS2_PLACEMENT_3D ( 'NONE', #66, #11, #227 ) ;
#229 = DIRECTION ( 'NONE',  ( 4.275831445896958607E-31, 1.000000000000000000, 1.224646799147353207E-16 ) ) ;
#230 = DIRECTION ( 'NONE',  ( 4.275831445896958607E-31, 1.000000000000000000, 1.224646799147353207E-16 ) ) ;
#231 = CARTESIAN_POINT ( 'NONE',  ( 1.326762908760390423E-13, 8.998558695971103225E-33, 38.00000000000000000 ) ) ;
#232 = AXIS2_PLACEMENT_3D ( 'NONE', #93, #176, #19 ) ;
#233 =( NAMED_UNIT ( * ) PLANE_ANGLE_UNIT ( ) SI_UNIT ( $, .RADIAN. ) );
#234 = LOCAL_TIME ( 11, 40, 3.000000000000000000, #79 ) ;
#235 = CARTESIAN_POINT ( 'NONE',  ( 1.316288464743861212E-13, 1.499999999999998668, 37.69999999999999574 ) ) ;
#236 = VERTEX_POINT ( 'NONE', #163 ) ;
#237 = DATE_AND_TIME ( #192, #65 ) ;
#238 = PRODUCT_DEFINITION_FORMATION_WITH_SPECIFIED_SOURCE ( 'ANY', '', #241, .NOT_KNOWN. ) ;
#239 = PERSON_AND_ORGANIZATION ( #132, #21 ) ;
#240 = EDGE_LOOP ( 'NONE', ( #195 ) ) ;
#241 = PRODUCT ( '200773', '200773', '', ( #184 ) ) ;
#242 = ORIENTED_EDGE ( 'NONE', *, *, #256, .F. ) ;
#243 = AXIS2_PLACEMENT_3D ( 'NONE', #301, #124, #185 ) ;
#244 = PLANE ( 'NONE',  #206 ) ;
#245 = EDGE_LOOP ( 'NONE', ( #7 ) ) ;
#246 = DIRECTION ( 'NONE',  ( -3.491481338843133355E-15, 1.224646799147353207E-16, -1.000000000000000000 ) ) ;
#247 = FACE_OUTER_BOUND ( 'NONE', #38, .T. ) ;
#248 = FACE_OUTER_BOUND ( 'NONE', #292, .T. ) ;
#249 = ADVANCED_BREP_SHAPE_REPRESENTATION ( '200773', ( #209, #113, #183 ), #1 ) ;
#250 = APPROVAL_DATE_TIME ( #121, #177 ) ;
#251 = FACE_OUTER_BOUND ( 'NONE', #9, .T. ) ;
#252 = CIRCLE ( 'NONE', #33, 0.4650000000000001910 ) ;
#253 = VERTEX_POINT ( 'NONE', #276 ) ;
#254 = APPROVAL_ROLE ( '' ) ;
#255 = CARTESIAN_POINT ( 'NONE',  ( 3.840629472727446691E-14, 0.4649999999999988587, 11.00000000000000000 ) ) ;
#256 = EDGE_CURVE ( 'NONE', #127, #127, #119, .T. ) ;
#257 = DIRECTION ( 'NONE',  ( 4.275831445896958607E-31, 1.000000000000000000, 1.224646799147352961E-16 ) ) ;
#258 = SECURITY_CLASSIFICATION_LEVEL ( 'unclassified' ) ;
#259 = ORIENTED_EDGE ( 'NONE', *, *, #100, .T. ) ;
#260 = CONICAL_SURFACE ( 'NONE', #232, 0.5249999999999994671, 0.5235987755982927094 ) ;
#261 = FACE_OUTER_BOUND ( 'NONE', #278, .T. ) ;
#262 = CC_DESIGN_DATE_AND_TIME_ASSIGNMENT ( #76, #28, ( #110 ) ) ;
#263 = FACE_OUTER_BOUND ( 'NONE', #286, .T. ) ;
#264 = AXIS2_PLACEMENT_3D ( 'NONE', #136, #178, #230 ) ;
#265 = EDGE_LOOP ( 'NONE', ( #284 ) ) ;
#266 = CARTESIAN_POINT ( 'NONE',  ( 1.326762908760390423E-13, -4.653657836759941941E-15, 38.00000000000000000 ) ) ;
#267 = DIRECTION ( 'NONE',  ( -4.275831445896958607E-31, -1.000000000000000000, -1.224646799147353207E-16 ) ) ;
#268 = CARTESIAN_POINT ( 'NONE',  ( 1.326762908760390423E-13, -4.653657836759941941E-15, 38.00000000000000000 ) ) ;
#269 = LOCAL_TIME ( 11, 40, 3.000000000000000000, #281 ) ;
#270 = DIRECTION ( 'NONE',  ( -3.491481338843133355E-15, 1.224646799147353207E-16, -1.000000000000000000 ) ) ;
#271 = CALENDAR_DATE ( 2021, 1, 12 ) ;
#272 = APPROVAL ( #128, 'UNSPECIFIED' ) ;
#273 = CC_DESIGN_APPROVAL ( #36, ( #238 ) ) ;
#274 = CARTESIAN_POINT ( 'NONE',  ( 3.961887347097082447E-14, 0.4953844939755802645, 11.34729635533384595 ) ) ;
#275 = FACE_OUTER_BOUND ( 'NONE', #226, .T. ) ;
#276 = CARTESIAN_POINT ( 'NONE',  ( 1.745740669421566678E-14, 0.5249999999999994671, 5.000000000000000000 ) ) ;
#277 = AXIS2_PLACEMENT_3D ( 'NONE', #48, #246, #91 ) ;
#278 = EDGE_LOOP ( 'NONE', ( #32 ) ) ;
#279 = PERSON_AND_ORGANIZATION ( #132, #21 ) ;
#280 = ORIENTED_EDGE ( 'NONE', *, *, #95, .F. ) ;
#281 = COORDINATED_UNIVERSAL_TIME_OFFSET ( 1, 0, .AHEAD. ) ;
#282 = CLOSED_SHELL ( 'NONE', ( #82, #142, #115, #191, #78, #73, #45, #34 ) ) ;
#283 = APPROVAL_PERSON_ORGANIZATION ( #279, #36, #254 ) ;
#284 = ORIENTED_EDGE ( 'NONE', *, *, #181, .T. ) ;
#285 = DESIGN_CONTEXT ( 'detailed design', #194, 'design' ) ;
#286 = EDGE_LOOP ( 'NONE', ( #103 ) ) ;
#287 = ADVANCED_FACE ( 'NONE', ( #275, #96 ), #162, .T. ) ;
#288 = ORIENTED_EDGE ( 'NONE', *, *, #297, .T. ) ;
#289 = ORIENTED_EDGE ( 'NONE', *, *, #187, .F. ) ;
#290 = AXIS2_PLACEMENT_3D ( 'NONE', #268, #270, #15 ) ;
#291 = FACE_BOUND ( 'NONE', #265, .T. ) ;
#292 = EDGE_LOOP ( 'NONE', ( #172 ) ) ;
#293 = CARTESIAN_POINT ( 'NONE',  ( 1.782025207856897045E-14, -6.250503024383757784E-16, 5.103923048454135802 ) ) ;
#294 = FACE_OUTER_BOUND ( 'NONE', #240, .T. ) ;
#295 = DIRECTION ( 'NONE',  ( -3.491481338843133355E-15, 1.224646799147353207E-16, -1.000000000000000000 ) ) ;
#296 = CARTESIAN_POINT ( 'NONE',  ( 1.782025207856897045E-14, 0.4649999999999986922, 5.103923048454135802 ) ) ;
#297 = EDGE_CURVE ( 'NONE', #302, #302, #125, .T. ) ;
#298 = VERTEX_POINT ( 'NONE', #126 ) ;
#299 = APPLICATION_CONTEXT ( 'configuration controlled 3d designs of mechanical parts and assemblies' ) ;
#300 = APPROVAL_ROLE ( '' ) ;
#301 = CARTESIAN_POINT ( 'NONE',  ( 3.961887347097082447E-14, -1.389643016053602117E-15, 11.34729635533384595 ) ) ;
#302 = VERTEX_POINT ( 'NONE', #296 ) ;
#303 = EDGE_LOOP ( 'NONE', ( #222 ) ) ;
ENDSEC;
END-ISO-10303-21;
