ISO-10303-21;
HEADER;
FILE_DESCRIPTION (( 'STEP AP203' ),
    '1' );
FILE_NAME ('200772.step',
    '2021-12-01T10:40:02',
    ( '' ),
    ( '' ),
    'SwSTEP 2.0',
    'SolidWorks 2019',
    '' );
FILE_SCHEMA (( 'CONFIG_CONTROL_DESIGN' ));
ENDSEC;

DATA;
#1 = ADVANCED_FACE ( 'NONE', ( #123, #259 ), #77, .T. ) ;
#2 = CARTESIAN_POINT ( 'NONE',  ( 0.0000000000000000000, 0.0000000000000000000, 0.0000000000000000000 ) ) ;
#3 = PERSON ( 'UNSPECIFIED', 'UNSPECIFIED', 'UNSPECIFIED', ('UNSPECIFIED'), ('UNSPECIFIED'), ('UNSPECIFIED') ) ;
#4 = CARTESIAN_POINT ( 'NONE',  ( 5.961044642553357801E-14, -2.090853002667425370E-15, 17.07311041945447982 ) ) ;
#5 = DIRECTION ( 'NONE',  ( -3.491481338843133355E-15, 1.224646799147353207E-16, -1.000000000000000000 ) ) ;
#6 = AXIS2_PLACEMENT_3D ( 'NONE', #192, #213, #166 ) ;
#7 = ORIENTED_EDGE ( 'NONE', *, *, #14, .T. ) ;
#8 = AXIS2_PLACEMENT_3D ( 'NONE', #15, #58, #108 ) ;
#9 = EDGE_CURVE ( 'NONE', #219, #219, #143, .T. ) ;
#10 = FACE_OUTER_BOUND ( 'NONE', #47, .T. ) ;
#11 = DIRECTION ( 'NONE',  ( 4.275831445896959482E-31, 1.000000000000000000, 1.224646799147353207E-16 ) ) ;
#12 = PLANE ( 'NONE',  #54 ) ;
#13 = PERSON_AND_ORGANIZATION ( #3, #279 ) ;
#14 = EDGE_CURVE ( 'NONE', #44, #44, #238, .T. ) ;
#15 = CARTESIAN_POINT ( 'NONE',  ( 3.961887347097082447E-14, -1.389643016053602117E-15, 11.34729635533384595 ) ) ;
#16 =( NAMED_UNIT ( * ) SI_UNIT ( $, .STERADIAN. ) SOLID_ANGLE_UNIT ( ) );
#17 = DATE_TIME_ROLE ( 'creation_date' ) ;
#18 = APPLICATION_PROTOCOL_DEFINITION ( 'international standard', 'config_control_design', 1994, #136 ) ;
#19 = APPROVAL_ROLE ( '' ) ;
#20 = CARTESIAN_POINT ( 'NONE',  ( -8.434717750739194336E-32, 2.958500731548147746E-33, -2.415799178675819975E-17 ) ) ;
#21 = LOCAL_TIME ( 11, 40, 2.000000000000000000, #62 ) ;
#22 = ORIENTED_EDGE ( 'NONE', *, *, #188, .T. ) ;
#23 = EDGE_CURVE ( 'NONE', #130, #130, #133, .T. ) ;
#24 = AXIS2_PLACEMENT_3D ( 'NONE', #303, #146, #72 ) ;
#25 = CARTESIAN_POINT ( 'NONE',  ( 1.745740669421566678E-14, 3.824387445787727868E-33, 5.000000000000000000 ) ) ;
#26 = APPROVAL_PERSON_ORGANIZATION ( #66, #278, #19 ) ;
#27 = APPROVAL ( #295, 'UNSPECIFIED' ) ;
#28 = CC_DESIGN_DATE_AND_TIME_ASSIGNMENT ( #139, #17, ( #266 ) ) ;
#29 = DIRECTION ( 'NONE',  ( -3.491481338843133355E-15, 1.224646799147353207E-16, -1.000000000000000000 ) ) ;
#30 = ORIENTED_EDGE ( 'NONE', *, *, #70, .F. ) ;
#31 = EDGE_LOOP ( 'NONE', ( #258 ) ) ;
#32 =( GEOMETRIC_REPRESENTATION_CONTEXT ( 3 ) GLOBAL_UNCERTAINTY_ASSIGNED_CONTEXT ( ( #231 ) ) GLOBAL_UNIT_ASSIGNED_CONTEXT ( ( #160, #242, #16 ) ) REPRESENTATION_CONTEXT ( 'NONE', 'WORKASPACE' ) );
#33 = ORIENTED_EDGE ( 'NONE', *, *, #188, .F. ) ;
#34 = FACE_BOUND ( 'NONE', #280, .T. ) ;
#35 = DIRECTION ( 'NONE',  ( -3.491481338843133355E-15, 1.224646799147353207E-16, -1.000000000000000000 ) ) ;
#36 = PLANE ( 'NONE',  #283 ) ;
#37 = CONICAL_SURFACE ( 'NONE', #246, 0.4599999999999995204, 0.5235987755982933756 ) ;
#38 = PERSON_AND_ORGANIZATION ( #3, #279 ) ;
#39 = SECURITY_CLASSIFICATION ( '', '', #107 ) ;
#40 = CARTESIAN_POINT ( 'NONE',  ( 1.326762908760390423E-13, 1.199999999999998845, 38.00000000000000000 ) ) ;
#41 = LOCAL_TIME ( 11, 40, 2.000000000000000000, #274 ) ;
#42 = DATE_AND_TIME ( #117, #253 ) ;
#43 = FACE_BOUND ( 'NONE', #48, .T. ) ;
#44 = VERTEX_POINT ( 'NONE', #63 ) ;
#45 = COORDINATED_UNIVERSAL_TIME_OFFSET ( 1, 0, .AHEAD. ) ;
#46 = CC_DESIGN_APPROVAL ( #104, ( #39 ) ) ;
#47 = EDGE_LOOP ( 'NONE', ( #56 ) ) ;
#48 = EDGE_LOOP ( 'NONE', ( #33 ) ) ;
#49 = CIRCLE ( 'NONE', #144, 1.499999999999997558 ) ;
#50 = LOCAL_TIME ( 11, 40, 2.000000000000000000, #276 ) ;
#51 = AXIS2_PLACEMENT_3D ( 'NONE', #127, #268, #244 ) ;
#52 = DIRECTION ( 'NONE',  ( -3.491481338843133355E-15, 1.224646799147353207E-16, -1.000000000000000000 ) ) ;
#53 = FACE_OUTER_BOUND ( 'NONE', #98, .T. ) ;
#54 = AXIS2_PLACEMENT_3D ( 'NONE', #20, #159, #267 ) ;
#55 = DIRECTION ( 'NONE',  ( 3.491481338843133355E-15, -1.224646799147353207E-16, 1.000000000000000000 ) ) ;
#56 = ORIENTED_EDGE ( 'NONE', *, *, #147, .F. ) ;
#57 = CONICAL_SURFACE ( 'NONE', #51, 1.200000000000003286, 0.7853981633974453924 ) ;
#58 = DIRECTION ( 'NONE',  ( -3.491481338843133355E-15, 1.224646799147353207E-16, -1.000000000000000000 ) ) ;
#59 = DIRECTION ( 'NONE',  ( -3.491481338843133355E-15, 1.224646799147353207E-16, -1.000000000000000000 ) ) ;
#60 = APPLICATION_CONTEXT ( 'configuration controlled 3d designs of mechanical parts and assemblies' ) ;
#61 = VERTEX_POINT ( 'NONE', #248 ) ;
#62 = COORDINATED_UNIVERSAL_TIME_OFFSET ( 1, 0, .AHEAD. ) ;
#63 = CARTESIAN_POINT ( 'NONE',  ( 1.775977784784342036E-14, 0.4599999999999989098, 5.086602540378446058 ) ) ;
#64 = CONICAL_SURFACE ( 'NONE', #233, 0.5099999999999993427, 0.5235987755982921543 ) ;
#65 = VERTEX_POINT ( 'NONE', #84 ) ;
#66 = PERSON_AND_ORGANIZATION ( #3, #279 ) ;
#67 = EDGE_LOOP ( 'NONE', ( #281 ) ) ;
#68 = ADVANCED_FACE ( 'NONE', ( #100, #194 ), #37, .T. ) ;
#69 = CC_DESIGN_PERSON_AND_ORGANIZATION_ASSIGNMENT ( #38, #132, ( #206 ) ) ;
#70 = EDGE_CURVE ( 'NONE', #65, #65, #49, .T. ) ;
#71 = AXIS2_PLACEMENT_3D ( 'NONE', #291, #179, #269 ) ;
#72 = DIRECTION ( 'NONE',  ( 0.0000000000000000000, 1.000000000000000000, 0.0000000000000000000 ) ) ;
#73 = DESIGN_CONTEXT ( 'detailed design', #60, 'design' ) ;
#74 = ADVANCED_BREP_SHAPE_REPRESENTATION ( '200772', ( #240, #149, #71 ), #32 ) ;
#75 = DIRECTION ( 'NONE',  ( -3.491481338843133355E-15, 1.224646799147353207E-16, -1.000000000000000000 ) ) ;
#76 = FACE_OUTER_BOUND ( 'NONE', #67, .T. ) ;
#77 = CONICAL_SURFACE ( 'NONE', #158, 1.499999999999997558, 0.1745329251994260922 ) ;
#78 = EDGE_LOOP ( 'NONE', ( #171 ) ) ;
#79 = PLANE ( 'NONE',  #256 ) ;
#80 = VERTEX_POINT ( 'NONE', #294 ) ;
#81 = FACE_OUTER_BOUND ( 'NONE', #301, .T. ) ;
#82 = CALENDAR_DATE ( 2021, 1, 12 ) ;
#83 = CYLINDRICAL_SURFACE ( 'NONE', #189, 1.500000000000000444 ) ;
#84 = CARTESIAN_POINT ( 'NONE',  ( 5.961044642553357801E-14, 1.499999999999995559, 17.07311041945447982 ) ) ;
#85 = AXIS2_PLACEMENT_3D ( 'NONE', #198, #200, #290 ) ;
#86 = APPROVAL_STATUS ( 'not_yet_approved' ) ;
#87 = VERTEX_POINT ( 'NONE', #175 ) ;
#88 = APPROVAL_STATUS ( 'not_yet_approved' ) ;
#89 = EDGE_LOOP ( 'NONE', ( #30 ) ) ;
#90 = APPLICATION_PROTOCOL_DEFINITION ( 'international standard', 'config_control_design', 1994, #60 ) ;
#91 = EDGE_CURVE ( 'NONE', #140, #140, #93, .T. ) ;
#92 = AXIS2_PLACEMENT_3D ( 'NONE', #197, #243, #11 ) ;
#93 = CIRCLE ( 'NONE', #115, 1.200000000000003286 ) ;
#94 = ORIENTED_EDGE ( 'NONE', *, *, #191, .F. ) ;
#95 = ADVANCED_FACE ( 'NONE', ( #76, #151 ), #145, .T. ) ;
#96 = EDGE_LOOP ( 'NONE', ( #7 ) ) ;
#97 = APPROVAL_PERSON_ORGANIZATION ( #230, #104, #199 ) ;
#98 = EDGE_LOOP ( 'NONE', ( #237 ) ) ;
#99 = DIRECTION ( 'NONE',  ( 0.0000000000000000000, 1.000000000000000000, 0.0000000000000000000 ) ) ;
#100 = FACE_OUTER_BOUND ( 'NONE', #148, .T. ) ;
#101 = CIRCLE ( 'NONE', #195, 0.5100000000000000089 ) ;
#102 = ORIENTED_EDGE ( 'NONE', *, *, #70, .T. ) ;
#103 = FACE_OUTER_BOUND ( 'NONE', #275, .T. ) ;
#104 = APPROVAL ( #86, 'UNSPECIFIED' ) ;
#105 = DIRECTION ( 'NONE',  ( 4.275831445896958607E-31, 1.000000000000000000, 1.224646799147353207E-16 ) ) ;
#106 = DIRECTION ( 'NONE',  ( 4.275831445896958607E-31, 1.000000000000000000, 1.224646799147353207E-16 ) ) ;
#107 = SECURITY_CLASSIFICATION_LEVEL ( 'unclassified' ) ;
#108 = DIRECTION ( 'NONE',  ( 0.0000000000000000000, 1.000000000000000000, 0.0000000000000000000 ) ) ;
#109 = CARTESIAN_POINT ( 'NONE',  ( 6.982962677686266711E-16, -2.449293598294706229E-17, 0.1999999999999999833 ) ) ;
#110 = PERSON_AND_ORGANIZATION_ROLE ( 'classification_officer' ) ;
#111 = DIRECTION ( 'NONE',  ( -3.491481338843133355E-15, 1.224646799147353207E-16, -1.000000000000000000 ) ) ;
#112 = ADVANCED_FACE ( 'NONE', ( #284 ), #261, .F. ) ;
#113 = CALENDAR_DATE ( 2021, 1, 12 ) ;
#114 = CARTESIAN_POINT ( 'NONE',  ( 1.326762908760390423E-13, 8.998558695971103225E-33, 38.00000000000000000 ) ) ;
#115 = AXIS2_PLACEMENT_3D ( 'NONE', #170, #75, #172 ) ;
#116 = CC_DESIGN_APPROVAL ( #278, ( #208 ) ) ;
#117 = CALENDAR_DATE ( 2021, 1, 12 ) ;
#118 = ORIENTED_EDGE ( 'NONE', *, *, #191, .T. ) ;
#119 = CC_DESIGN_PERSON_AND_ORGANIZATION_ASSIGNMENT ( #185, #110, ( #39 ) ) ;
#120 = CC_DESIGN_SECURITY_CLASSIFICATION ( #39, ( #208 ) ) ;
#121 = DIRECTION ( 'NONE',  ( 0.0000000000000000000, 1.000000000000000000, 0.0000000000000000000 ) ) ;
#122 = ADVANCED_FACE ( 'NONE', ( #260, #53 ), #215, .T. ) ;
#123 = FACE_BOUND ( 'NONE', #298, .T. ) ;
#124 = CARTESIAN_POINT ( 'NONE',  ( 1.775977784784342036E-14, -6.229291519609259858E-16, 5.086602540378446058 ) ) ;
#125 = AXIS2_PLACEMENT_3D ( 'NONE', #228, #270, #106 ) ;
#126 = DIRECTION ( 'NONE',  ( 0.0000000000000000000, 1.000000000000000000, 0.0000000000000000000 ) ) ;
#127 = CARTESIAN_POINT ( 'NONE',  ( 1.326762908760390423E-13, -4.653657836759941941E-15, 38.00000000000000000 ) ) ;
#128 = DIRECTION ( 'NONE',  ( 3.491481338843133355E-15, -1.224646799147353207E-16, 1.000000000000000000 ) ) ;
#129 = DIRECTION ( 'NONE',  ( 0.0000000000000000000, 1.000000000000000000, 0.0000000000000000000 ) ) ;
#130 = VERTEX_POINT ( 'NONE', #292 ) ;
#131 = LOCAL_TIME ( 11, 40, 2.000000000000000000, #177 ) ;
#132 = PERSON_AND_ORGANIZATION_ROLE ( 'design_owner' ) ;
#133 = CIRCLE ( 'NONE', #6, 1.500000000000003331 ) ;
#134 = CARTESIAN_POINT ( 'NONE',  ( 3.840629472727446691E-14, 0.4599999999999990208, 11.00000000000000000 ) ) ;
#135 = PRODUCT_DEFINITION_SHAPE ( 'NONE', 'NONE',  #266 ) ;
#136 = APPLICATION_CONTEXT ( 'configuration controlled 3d designs of mechanical parts and assemblies' ) ;
#137 = PERSON_AND_ORGANIZATION ( #3, #279 ) ;
#138 = DIRECTION ( 'NONE',  ( -3.776333224288702508E-31, -1.000000000000000000, -1.062943306358339019E-16 ) ) ;
#139 = DATE_AND_TIME ( #113, #41 ) ;
#140 = VERTEX_POINT ( 'NONE', #40 ) ;
#141 = ADVANCED_FACE ( 'NONE', ( #288, #103 ), #83, .T. ) ;
#142 = DATE_TIME_ROLE ( 'classification_date' ) ;
#143 = CIRCLE ( 'NONE', #24, 0.5100000000000000089 ) ;
#144 = AXIS2_PLACEMENT_3D ( 'NONE', #286, #52, #121 ) ;
#145 = CYLINDRICAL_SURFACE ( 'NONE', #245, 0.4599999999999999645 ) ;
#146 = DIRECTION ( 'NONE',  ( -3.491481338843133355E-15, 1.224646799147353207E-16, -1.000000000000000000 ) ) ;
#147 = EDGE_CURVE ( 'NONE', #61, #61, #101, .T. ) ;
#148 = EDGE_LOOP ( 'NONE', ( #255 ) ) ;
#149 = MANIFOLD_SOLID_BREP ( 'Corps-Déplacer/Copier1[2]', #271 ) ;
#150 = EDGE_LOOP ( 'NONE', ( #118 ) ) ;
#151 = FACE_OUTER_BOUND ( 'NONE', #150, .T. ) ;
#152 = APPROVAL_PERSON_ORGANIZATION ( #13, #27, #186 ) ;
#153 = DIRECTION ( 'NONE',  ( 3.491481338843133355E-15, -1.224646799147353207E-16, 1.000000000000000000 ) ) ;
#154 = FACE_OUTER_BOUND ( 'NONE', #78, .T. ) ;
#155 = FACE_OUTER_BOUND ( 'NONE', #263, .T. ) ;
#156 = TOROIDAL_SURFACE ( 'NONE', #125, 2.459999999999999964, 2.000000000000000000 ) ;
#157 = APPROVAL_DATE_TIME ( #181, #27 ) ;
#158 = AXIS2_PLACEMENT_3D ( 'NONE', #4, #236, #239 ) ;
#159 = DIRECTION ( 'NONE',  ( 3.491481338843133355E-15, -1.224646799147353207E-16, 1.000000000000000000 ) ) ;
#160 =( LENGTH_UNIT ( ) NAMED_UNIT ( * ) SI_UNIT ( .MILLI., .METRE. ) );
#161 = PERSON_AND_ORGANIZATION_ROLE ( 'design_supplier' ) ;
#162 = ORIENTED_EDGE ( 'NONE', *, *, #91, .F. ) ;
#163 = PERSON_AND_ORGANIZATION_ROLE ( 'creator' ) ;
#164 = ORIENTED_EDGE ( 'NONE', *, *, #180, .F. ) ;
#165 = ORIENTED_EDGE ( 'NONE', *, *, #23, .F. ) ;
#166 = DIRECTION ( 'NONE',  ( 0.0000000000000000000, 1.000000000000000000, 0.0000000000000000000 ) ) ;
#167 = DIRECTION ( 'NONE',  ( -4.275831445896958607E-31, -1.000000000000000000, -1.224646799147353207E-16 ) ) ;
#168 = CC_DESIGN_PERSON_AND_ORGANIZATION_ASSIGNMENT ( #137, #163, ( #208 ) ) ;
#169 = AXIS2_PLACEMENT_3D ( 'NONE', #214, #29, #99 ) ;
#170 = CARTESIAN_POINT ( 'NONE',  ( 1.326762908760390423E-13, -4.653657836759941941E-15, 38.00000000000000000 ) ) ;
#171 = ORIENTED_EDGE ( 'NONE', *, *, #176, .T. ) ;
#172 = DIRECTION ( 'NONE',  ( 0.0000000000000000000, 1.000000000000000000, 0.0000000000000000000 ) ) ;
#173 = DIRECTION ( 'NONE',  ( 3.776333224288702508E-31, 1.000000000000000000, 1.062943306358339019E-16 ) ) ;
#174 = DIRECTION ( 'NONE',  ( -4.275831445896958607E-31, -1.000000000000000000, -1.224646799147353207E-16 ) ) ;
#175 = CARTESIAN_POINT ( 'NONE',  ( 0.0000000000000000000, 0.3945299461620759840, 0.0000000000000000000 ) ) ;
#176 = EDGE_CURVE ( 'NONE', #204, #204, #300, .T. ) ;
#177 = COORDINATED_UNIVERSAL_TIME_OFFSET ( 1, 0, .AHEAD. ) ;
#178 = DIRECTION ( 'NONE',  ( -3.491481338843133355E-15, 1.224646799147353207E-16, -1.000000000000000000 ) ) ;
#179 = DIRECTION ( 'NONE',  ( 0.0000000000000000000, 0.0000000000000000000, 1.000000000000000000 ) ) ;
#180 = EDGE_CURVE ( 'NONE', #80, #80, #285, .T. ) ;
#181 = DATE_AND_TIME ( #82, #21 ) ;
#182 = CALENDAR_DATE ( 2021, 1, 12 ) ;
#183 = AXIS2_PLACEMENT_3D ( 'NONE', #289, #59, #126 ) ;
#184 = FACE_OUTER_BOUND ( 'NONE', #297, .T. ) ;
#185 = PERSON_AND_ORGANIZATION ( #3, #279 ) ;
#186 = APPROVAL_ROLE ( '' ) ;
#187 = ORIENTED_EDGE ( 'NONE', *, *, #180, .T. ) ;
#188 = EDGE_CURVE ( 'NONE', #87, #87, #216, .T. ) ;
#189 = AXIS2_PLACEMENT_3D ( 'NONE', #218, #35, #105 ) ;
#190 = ORIENTED_EDGE ( 'NONE', *, *, #23, .T. ) ;
#191 = EDGE_CURVE ( 'NONE', #223, #223, #232, .T. ) ;
#192 = CARTESIAN_POINT ( 'NONE',  ( 1.316288464743861212E-13, -4.616918432785521081E-15, 37.69999999999999574 ) ) ;
#193 = ORIENTED_EDGE ( 'NONE', *, *, #9, .T. ) ;
#194 = FACE_BOUND ( 'NONE', #96, .T. ) ;
#195 = AXIS2_PLACEMENT_3D ( 'NONE', #221, #178, #129 ) ;
#196 = DIRECTION ( 'NONE',  ( -3.491481338843133355E-15, 1.224646799147353207E-16, -1.000000000000000000 ) ) ;
#197 = CARTESIAN_POINT ( 'NONE',  ( 0.0000000000000000000, 0.0000000000000000000, 0.0000000000000000000 ) ) ;
#198 = CARTESIAN_POINT ( 'NONE',  ( -1.686943550147838867E-31, 5.917001463096295491E-33, -4.831598357351639949E-17 ) ) ;
#199 = APPROVAL_ROLE ( '' ) ;
#200 = DIRECTION ( 'NONE',  ( -3.491481338843133355E-15, 1.224646799147353207E-16, -1.000000000000000000 ) ) ;
#201 = DATE_AND_TIME ( #182, #131 ) ;
#202 = DIRECTION ( 'NONE',  ( 4.275831445896958607E-31, 1.000000000000000000, 1.224646799147353207E-16 ) ) ;
#203 = APPROVAL_DATE_TIME ( #42, #278 ) ;
#204 = VERTEX_POINT ( 'NONE', #229 ) ;
#205 = MECHANICAL_CONTEXT ( 'NONE', #136, 'mechanical' ) ;
#206 = PRODUCT ( '200772', '200772', '', ( #205 ) ) ;
#207 = AXIS2_PLACEMENT_3D ( 'NONE', #217, #265, #173 ) ;
#208 = PRODUCT_DEFINITION_FORMATION_WITH_SPECIFIED_SOURCE ( 'ANY', '', #206, .NOT_KNOWN. ) ;
#209 = ADVANCED_FACE ( 'NONE', ( #10 ), #79, .T. ) ;
#210 = CC_DESIGN_PERSON_AND_ORGANIZATION_ASSIGNMENT ( #225, #247, ( #266 ) ) ;
#211 = EDGE_LOOP ( 'NONE', ( #22 ) ) ;
#212 = CC_DESIGN_DATE_AND_TIME_ASSIGNMENT ( #251, #142, ( #39 ) ) ;
#213 = DIRECTION ( 'NONE',  ( -3.491481338843133355E-15, 1.224646799147353207E-16, -1.000000000000000000 ) ) ;
#214 = CARTESIAN_POINT ( 'NONE',  ( 1.775977784784342036E-14, -6.229291519609259858E-16, 5.086602540378446058 ) ) ;
#215 = CYLINDRICAL_SURFACE ( 'NONE', #92, 0.5099999999999996758 ) ;
#216 = CIRCLE ( 'NONE', #85, 0.3945299461620759840 ) ;
#217 = CARTESIAN_POINT ( 'NONE',  ( 6.982962677686266711E-16, -2.449293598294706229E-17, 0.1999999999999999833 ) ) ;
#218 = CARTESIAN_POINT ( 'NONE',  ( 0.0000000000000000000, 0.0000000000000000000, 0.0000000000000000000 ) ) ;
#219 = VERTEX_POINT ( 'NONE', #250 ) ;
#220 = ADVANCED_FACE ( 'NONE', ( #81, #34 ), #57, .T. ) ;
#221 = CARTESIAN_POINT ( 'NONE',  ( 1.745740669421566678E-14, -6.123233995736766282E-16, 5.000000000000000000 ) ) ;
#222 = AXIS2_PLACEMENT_3D ( 'NONE', #25, #55, #167 ) ;
#223 = VERTEX_POINT ( 'NONE', #134 ) ;
#224 = CC_DESIGN_APPROVAL ( #27, ( #266 ) ) ;
#225 = PERSON_AND_ORGANIZATION ( #3, #279 ) ;
#226 = FACE_OUTER_BOUND ( 'NONE', #211, .T. ) ;
#227 = PERSON_AND_ORGANIZATION ( #3, #279 ) ;
#228 = CARTESIAN_POINT ( 'NONE',  ( 3.840629472727446691E-14, -1.301042606982605321E-15, 11.00000000000000000 ) ) ;
#229 = CARTESIAN_POINT ( 'NONE',  ( 6.982962677686268683E-16, 0.5099999999999993427, 0.2000000000000000389 ) ) ;
#230 = PERSON_AND_ORGANIZATION ( #3, #279 ) ;
#231 = UNCERTAINTY_MEASURE_WITH_UNIT (LENGTH_MEASURE( 1.000000000000000082E-05 ), #160, 'distance_accuracy_value', 'NONE');
#232 = CIRCLE ( 'NONE', #183, 0.4600000000000004086 ) ;
#233 = AXIS2_PLACEMENT_3D ( 'NONE', #109, #128, #138 ) ;
#234 = DIRECTION ( 'NONE',  ( 4.275831445896958607E-31, 1.000000000000000000, 1.224646799147353207E-16 ) ) ;
#235 = EDGE_LOOP ( 'NONE', ( #193 ) ) ;
#236 = DIRECTION ( 'NONE',  ( 3.491481338843133355E-15, -1.224646799147353207E-16, 1.000000000000000000 ) ) ;
#237 = ORIENTED_EDGE ( 'NONE', *, *, #147, .T. ) ;
#238 = CIRCLE ( 'NONE', #169, 0.4599999999999995204 ) ;
#239 = DIRECTION ( 'NONE',  ( 0.0000000000000000000, -1.000000000000000000, 0.0000000000000000000 ) ) ;
#240 = MANIFOLD_SOLID_BREP ( 'Corps-Déplacer/Copier1[1]', #299 ) ;
#241 = CARTESIAN_POINT ( 'NONE',  ( 1.745740669421566678E-14, 3.824387445787727868E-33, 5.000000000000000000 ) ) ;
#242 =( NAMED_UNIT ( * ) PLANE_ANGLE_UNIT ( ) SI_UNIT ( $, .RADIAN. ) );
#243 = DIRECTION ( 'NONE',  ( -3.491481338843133355E-15, 1.224646799147353207E-16, -1.000000000000000000 ) ) ;
#244 = DIRECTION ( 'NONE',  ( 0.0000000000000000000, 1.000000000000000000, 0.0000000000000000000 ) ) ;
#245 = AXIS2_PLACEMENT_3D ( 'NONE', #2, #5, #234 ) ;
#246 = AXIS2_PLACEMENT_3D ( 'NONE', #124, #196, #282 ) ;
#247 = PERSON_AND_ORGANIZATION_ROLE ( 'creator' ) ;
#248 = CARTESIAN_POINT ( 'NONE',  ( 1.745740669421566678E-14, 0.5099999999999993427, 5.000000000000000000 ) ) ;
#249 = APPROVAL_DATE_TIME ( #201, #104 ) ;
#250 = CARTESIAN_POINT ( 'NONE',  ( 1.745740669421566678E-14, 0.5099999999999993427, 5.000000000000000000 ) ) ;
#251 = DATE_AND_TIME ( #293, #50 ) ;
#252 = EDGE_LOOP ( 'NONE', ( #102 ) ) ;
#253 = LOCAL_TIME ( 11, 40, 2.000000000000000000, #45 ) ;
#254 = ADVANCED_FACE ( 'NONE', ( #226 ), #12, .F. ) ;
#255 = ORIENTED_EDGE ( 'NONE', *, *, #9, .F. ) ;
#256 = AXIS2_PLACEMENT_3D ( 'NONE', #241, #153, #174 ) ;
#257 = ADVANCED_FACE ( 'NONE', ( #184 ), #36, .F. ) ;
#258 = ORIENTED_EDGE ( 'NONE', *, *, #176, .F. ) ;
#259 = FACE_OUTER_BOUND ( 'NONE', #252, .T. ) ;
#260 = FACE_OUTER_BOUND ( 'NONE', #31, .T. ) ;
#261 = PLANE ( 'NONE',  #222 ) ;
#262 = PRODUCT_RELATED_PRODUCT_CATEGORY ( 'detail', '', ( #206 ) ) ;
#263 = EDGE_LOOP ( 'NONE', ( #187 ) ) ;
#264 = EDGE_LOOP ( 'NONE', ( #94 ) ) ;
#265 = DIRECTION ( 'NONE',  ( -3.491481338843133355E-15, 1.224646799147353207E-16, -1.000000000000000000 ) ) ;
#266 = PRODUCT_DEFINITION ( 'UNKNOWN', '', #208, #73 ) ;
#267 = DIRECTION ( 'NONE',  ( -4.275831445896958607E-31, -1.000000000000000000, -1.224646799147353207E-16 ) ) ;
#268 = DIRECTION ( 'NONE',  ( -3.491481338843133355E-15, 1.224646799147353207E-16, -1.000000000000000000 ) ) ;
#269 = DIRECTION ( 'NONE',  ( 1.000000000000000000, 0.0000000000000000000, 0.0000000000000000000 ) ) ;
#270 = DIRECTION ( 'NONE',  ( -3.491481338843133355E-15, 1.224646799147353207E-16, -1.000000000000000000 ) ) ;
#271 = CLOSED_SHELL ( 'NONE', ( #254, #287, #122, #209 ) ) ;
#272 = SHAPE_DEFINITION_REPRESENTATION ( #135, #74 ) ;
#273 = FACE_OUTER_BOUND ( 'NONE', #264, .T. ) ;
#274 = COORDINATED_UNIVERSAL_TIME_OFFSET ( 1, 0, .AHEAD. ) ;
#275 = EDGE_LOOP ( 'NONE', ( #190 ) ) ;
#276 = COORDINATED_UNIVERSAL_TIME_OFFSET ( 1, 0, .AHEAD. ) ;
#277 = CC_DESIGN_PERSON_AND_ORGANIZATION_ASSIGNMENT ( #227, #161, ( #208 ) ) ;
#278 = APPROVAL ( #88, 'UNSPECIFIED' ) ;
#279 = ORGANIZATION ( 'UNSPECIFIED', 'UNSPECIFIED', '' ) ;
#280 = EDGE_LOOP ( 'NONE', ( #302 ) ) ;
#281 = ORIENTED_EDGE ( 'NONE', *, *, #14, .F. ) ;
#282 = DIRECTION ( 'NONE',  ( 0.0000000000000000000, 1.000000000000000000, 0.0000000000000000000 ) ) ;
#283 = AXIS2_PLACEMENT_3D ( 'NONE', #114, #111, #202 ) ;
#284 = FACE_OUTER_BOUND ( 'NONE', #235, .T. ) ;
#285 = CIRCLE ( 'NONE', #8, 0.4903844939755816479 ) ;
#286 = CARTESIAN_POINT ( 'NONE',  ( 5.961044642553357801E-14, -2.090853002667425370E-15, 17.07311041945447982 ) ) ;
#287 = ADVANCED_FACE ( 'NONE', ( #43, #154 ), #64, .T. ) ;
#288 = FACE_OUTER_BOUND ( 'NONE', #89, .T. ) ;
#289 = CARTESIAN_POINT ( 'NONE',  ( 3.840629472727446691E-14, -1.347111479062088405E-15, 11.00000000000000000 ) ) ;
#290 = DIRECTION ( 'NONE',  ( 4.275831445896959482E-31, 1.000000000000000000, 1.224646799147353454E-16 ) ) ;
#291 = CARTESIAN_POINT ( 'NONE',  ( 0.0000000000000000000, 0.0000000000000000000, 0.0000000000000000000 ) ) ;
#292 = CARTESIAN_POINT ( 'NONE',  ( 1.316288464743861212E-13, 1.499999999999998668, 37.69999999999999574 ) ) ;
#293 = CALENDAR_DATE ( 2021, 1, 12 ) ;
#294 = CARTESIAN_POINT ( 'NONE',  ( 3.961887347097082447E-14, 0.4903844939755802601, 11.34729635533384595 ) ) ;
#295 = APPROVAL_STATUS ( 'not_yet_approved' ) ;
#296 = ADVANCED_FACE ( 'NONE', ( #273, #155 ), #156, .F. ) ;
#297 = EDGE_LOOP ( 'NONE', ( #162 ) ) ;
#298 = EDGE_LOOP ( 'NONE', ( #164 ) ) ;
#299 = CLOSED_SHELL ( 'NONE', ( #112, #68, #95, #296, #1, #141, #220, #257 ) ) ;
#300 = CIRCLE ( 'NONE', #207, 0.5099999999999993427 ) ;
#301 = EDGE_LOOP ( 'NONE', ( #165 ) ) ;
#302 = ORIENTED_EDGE ( 'NONE', *, *, #91, .T. ) ;
#303 = CARTESIAN_POINT ( 'NONE',  ( 1.745740669421566678E-14, -6.123233995736766282E-16, 5.000000000000000000 ) ) ;
ENDSEC;
END-ISO-10303-21;
