ISO-10303-21;
HEADER;
FILE_DESCRIPTION (( 'STEP AP203' ),
    '1' );
FILE_NAME ('200771.step',
    '2021-12-01T10:40:02',
    ( '' ),
    ( '' ),
    'SwSTEP 2.0',
    'SolidWorks 2019',
    '' );
FILE_SCHEMA (( 'CONFIG_CONTROL_DESIGN' ));
ENDSEC;

DATA;
#1 = AXIS2_PLACEMENT_3D ( 'NONE', #161, #144, #228 ) ;
#2 = EDGE_CURVE ( 'NONE', #30, #30, #19, .T. ) ;
#3 = CC_DESIGN_PERSON_AND_ORGANIZATION_ASSIGNMENT ( #291, #138, ( #176 ) ) ;
#4 = EDGE_CURVE ( 'NONE', #299, #299, #220, .T. ) ;
#5 = EDGE_LOOP ( 'NONE', ( #265 ) ) ;
#6 = DIRECTION ( 'NONE',  ( 0.0000000000000000000, 1.000000000000000000, 0.0000000000000000000 ) ) ;
#7 = LOCAL_TIME ( 11, 40, 2.000000000000000000, #250 ) ;
#8 = AXIS2_PLACEMENT_3D ( 'NONE', #191, #69, #163 ) ;
#9 = CYLINDRICAL_SURFACE ( 'NONE', #133, 0.3949999999999998512 ) ;
#10 = ADVANCED_FACE ( 'NONE', ( #101 ), #71, .F. ) ;
#11 = CYLINDRICAL_SURFACE ( 'NONE', #271, 1.500000000000000444 ) ;
#12 = CARTESIAN_POINT ( 'NONE',  ( 1.326762908760390423E-13, -4.653657836759941941E-15, 38.00000000000000000 ) ) ;
#13 = PERSON_AND_ORGANIZATION_ROLE ( 'creator' ) ;
#14 = EDGE_CURVE ( 'NONE', #142, #142, #57, .T. ) ;
#15 = FACE_OUTER_BOUND ( 'NONE', #152, .T. ) ;
#16 = AXIS2_PLACEMENT_3D ( 'NONE', #289, #240, #262 ) ;
#17 = APPROVAL_STATUS ( 'not_yet_approved' ) ;
#18 = ORIENTED_EDGE ( 'NONE', *, *, #75, .F. ) ;
#19 = CIRCLE ( 'NONE', #206, 0.3772649730810376800 ) ;
#20 = APPROVAL_ROLE ( '' ) ;
#21 = CARTESIAN_POINT ( 'NONE',  ( 3.263591079328455776E-14, 0.4253844939755800914, 9.347296355333845952 ) ) ;
#22 = APPLICATION_PROTOCOL_DEFINITION ( 'international standard', 'config_control_design', 1994, #116 ) ;
#23 = CARTESIAN_POINT ( 'NONE',  ( 3.263591079328455776E-14, -1.144713656224131427E-15, 9.347296355333845952 ) ) ;
#24 = DIRECTION ( 'NONE',  ( 3.491481338843133355E-15, -1.224646799147353207E-16, 1.000000000000000000 ) ) ;
#25 = CARTESIAN_POINT ( 'NONE',  ( 0.0000000000000000000, 0.0000000000000000000, 0.0000000000000000000 ) ) ;
#26 = ORIENTED_EDGE ( 'NONE', *, *, #117, .T. ) ;
#27 = APPROVAL ( #172, 'UNSPECIFIED' ) ;
#28 = DATE_AND_TIME ( #280, #87 ) ;
#29 = DIRECTION ( 'NONE',  ( 4.275831445896958607E-31, 1.000000000000000000, 1.224646799147352961E-16 ) ) ;
#30 = VERTEX_POINT ( 'NONE', #125 ) ;
#31 = EDGE_CURVE ( 'NONE', #118, #118, #107, .T. ) ;
#32 = EDGE_LOOP ( 'NONE', ( #83 ) ) ;
#33 = CARTESIAN_POINT ( 'NONE',  ( 1.316288464743861212E-13, -4.616918432785521081E-15, 37.69999999999999574 ) ) ;
#34 = CIRCLE ( 'NONE', #189, 1.500000000000003331 ) ;
#35 = DIRECTION ( 'NONE',  ( -3.491481338843133355E-15, 1.224646799147353207E-16, -1.000000000000000000 ) ) ;
#36 = EDGE_LOOP ( 'NONE', ( #54 ) ) ;
#37 = AXIS2_PLACEMENT_3D ( 'NONE', #212, #145, #297 ) ;
#38 = DIRECTION ( 'NONE',  ( -3.491481338843133355E-15, 1.224646799147353207E-16, -1.000000000000000000 ) ) ;
#39 = DIRECTION ( 'NONE',  ( 4.275831445896958607E-31, 1.000000000000000000, 1.224646799147353207E-16 ) ) ;
#40 = COORDINATED_UNIVERSAL_TIME_OFFSET ( 1, 0, .AHEAD. ) ;
#41 = FACE_OUTER_BOUND ( 'NONE', #281, .T. ) ;
#42 = DATE_AND_TIME ( #61, #80 ) ;
#43 = CARTESIAN_POINT ( 'NONE',  ( 1.745740669421566678E-14, -6.123233995736766282E-16, 5.000000000000000000 ) ) ;
#44 = PERSON_AND_ORGANIZATION_ROLE ( 'creator' ) ;
#45 = CARTESIAN_POINT ( 'NONE',  ( 1.745740669421566678E-14, 3.261977527289531265E-33, 5.000000000000000000 ) ) ;
#46 = VERTEX_POINT ( 'NONE', #255 ) ;
#47 = FACE_BOUND ( 'NONE', #56, .T. ) ;
#48 = CARTESIAN_POINT ( 'NONE',  ( 1.745740669421566678E-14, 3.261977527289531265E-33, 5.000000000000000000 ) ) ;
#49 = DIRECTION ( 'NONE',  ( -4.427425159510893230E-31, -1.000000000000000000, -1.246209393661501098E-16 ) ) ;
#50 = CIRCLE ( 'NONE', #150, 1.200000000000003286 ) ;
#51 = VERTEX_POINT ( 'NONE', #274 ) ;
#52 = APPROVAL_DATE_TIME ( #28, #27 ) ;
#53 = PRODUCT_DEFINITION_SHAPE ( 'NONE', 'NONE',  #215 ) ;
#54 = ORIENTED_EDGE ( 'NONE', *, *, #4, .F. ) ;
#55 = ORIENTED_EDGE ( 'NONE', *, *, #2, .T. ) ;
#56 = EDGE_LOOP ( 'NONE', ( #200 ) ) ;
#57 = CIRCLE ( 'NONE', #151, 0.4253844939755812016 ) ;
#58 = LOCAL_TIME ( 11, 40, 2.000000000000000000, #226 ) ;
#59 = FACE_OUTER_BOUND ( 'NONE', #266, .T. ) ;
#60 = CC_DESIGN_APPROVAL ( #153, ( #215 ) ) ;
#61 = CALENDAR_DATE ( 2021, 1, 12 ) ;
#62 = ORIENTED_EDGE ( 'NONE', *, *, #99, .F. ) ;
#63 = CARTESIAN_POINT ( 'NONE',  ( 1.769930361711786712E-14, 0.3949999999999989075, 5.069282032302756313 ) ) ;
#64 = APPROVAL_STATUS ( 'not_yet_approved' ) ;
#65 = APPROVAL_PERSON_ORGANIZATION ( #193, #27, #260 ) ;
#66 = AXIS2_PLACEMENT_3D ( 'NONE', #253, #167, #49 ) ;
#67 = DIRECTION ( 'NONE',  ( 0.0000000000000000000, 1.000000000000000000, 0.0000000000000000000 ) ) ;
#68 = CARTESIAN_POINT ( 'NONE',  ( 1.326762908760390423E-13, 1.199999999999998845, 38.00000000000000000 ) ) ;
#69 = DIRECTION ( 'NONE',  ( -3.491481338843133355E-15, 1.224646799147353207E-16, -1.000000000000000000 ) ) ;
#70 = FACE_BOUND ( 'NONE', #261, .T. ) ;
#71 = PLANE ( 'NONE',  #1 ) ;
#72 = FACE_OUTER_BOUND ( 'NONE', #5, .T. ) ;
#73 = DIRECTION ( 'NONE',  ( -3.491481338843133355E-15, 1.224646799147353207E-16, -1.000000000000000000 ) ) ;
#74 = CONICAL_SURFACE ( 'NONE', #300, 1.499999999999997335, 0.1745329251994260922 ) ;
#75 = EDGE_CURVE ( 'NONE', #187, #187, #90, .T. ) ;
#76 = APPROVAL ( #17, 'UNSPECIFIED' ) ;
#77 = EDGE_LOOP ( 'NONE', ( #55 ) ) ;
#78 = ADVANCED_FACE ( 'NONE', ( #165 ), #254, .F. ) ;
#79 = PERSON_AND_ORGANIZATION_ROLE ( 'classification_officer' ) ;
#80 = LOCAL_TIME ( 11, 40, 2.000000000000000000, #40 ) ;
#81 = CIRCLE ( 'NONE', #279, 0.4349999999999999978 ) ;
#82 = CC_DESIGN_PERSON_AND_ORGANIZATION_ASSIGNMENT ( #246, #13, ( #176 ) ) ;
#83 = ORIENTED_EDGE ( 'NONE', *, *, #31, .T. ) ;
#84 = FACE_OUTER_BOUND ( 'NONE', #303, .T. ) ;
#85 = ORIENTED_EDGE ( 'NONE', *, *, #31, .F. ) ;
#86 = CONICAL_SURFACE ( 'NONE', #66, 0.4349999999999993872, 0.5235987755982925984 ) ;
#87 = LOCAL_TIME ( 11, 40, 2.000000000000000000, #233 ) ;
#88 = FACE_OUTER_BOUND ( 'NONE', #217, .T. ) ;
#89 = CARTESIAN_POINT ( 'NONE',  ( 0.0000000000000000000, 0.0000000000000000000, 0.0000000000000000000 ) ) ;
#90 = CIRCLE ( 'NONE', #37, 0.3950000000000001843 ) ;
#91 = DIRECTION ( 'NONE',  ( -3.491481338843133355E-15, 1.224646799147353207E-16, -1.000000000000000000 ) ) ;
#92 = CARTESIAN_POINT ( 'NONE',  ( 1.316288464743861212E-13, 1.499999999999998668, 37.69999999999999574 ) ) ;
#93 = DIRECTION ( 'NONE',  ( -3.491481338843133355E-15, 1.224646799147353207E-16, -1.000000000000000000 ) ) ;
#94 = CARTESIAN_POINT ( 'NONE',  ( 5.391456009948087605E-14, 1.499999999999995559, 15.44174373772964692 ) ) ;
#95 = PERSON_AND_ORGANIZATION_ROLE ( 'design_owner' ) ;
#96 = DIRECTION ( 'NONE',  ( 0.0000000000000000000, 1.000000000000000000, 0.0000000000000000000 ) ) ;
#97 = FACE_OUTER_BOUND ( 'NONE', #32, .T. ) ;
#98 = CALENDAR_DATE ( 2021, 1, 12 ) ;
#99 = EDGE_CURVE ( 'NONE', #46, #46, #211, .T. ) ;
#100 = CALENDAR_DATE ( 2021, 1, 12 ) ;
#101 = FACE_OUTER_BOUND ( 'NONE', #282, .T. ) ;
#102 = APPLICATION_CONTEXT ( 'configuration controlled 3d designs of mechanical parts and assemblies' ) ;
#103 = DIRECTION ( 'NONE',  ( 0.0000000000000000000, 1.000000000000000000, 0.0000000000000000000 ) ) ;
#104 = AXIS2_PLACEMENT_3D ( 'NONE', #242, #219, #123 ) ;
#105 = PERSON_AND_ORGANIZATION ( #252, #231 ) ;
#106 = ADVANCED_FACE ( 'NONE', ( #204, #290 ), #9, .T. ) ;
#107 = CIRCLE ( 'NONE', #8, 1.499999999999997335 ) ;
#108 = EDGE_LOOP ( 'NONE', ( #239 ) ) ;
#109 = FACE_BOUND ( 'NONE', #175, .T. ) ;
#110 = CC_DESIGN_SECURITY_CLASSIFICATION ( #139, ( #176 ) ) ;
#111 = AXIS2_PLACEMENT_3D ( 'NONE', #146, #234, #230 ) ;
#112 = DIRECTION ( 'NONE',  ( 4.275831445896958607E-31, 1.000000000000000000, 1.224646799147353207E-16 ) ) ;
#113 = CARTESIAN_POINT ( 'NONE',  ( 0.0000000000000000000, 0.0000000000000000000, 0.0000000000000000000 ) ) ;
#114 = ADVANCED_FACE ( 'NONE', ( #88, #109 ), #127, .T. ) ;
#115 = APPROVAL_DATE_TIME ( #154, #76 ) ;
#116 = APPLICATION_CONTEXT ( 'configuration controlled 3d designs of mechanical parts and assemblies' ) ;
#117 = EDGE_CURVE ( 'NONE', #51, #51, #81, .T. ) ;
#118 = VERTEX_POINT ( 'NONE', #94 ) ;
#119 = PERSON_AND_ORGANIZATION ( #252, #231 ) ;
#120 = DIRECTION ( 'NONE',  ( -3.491481338843133355E-15, 1.224646799147353207E-16, -1.000000000000000000 ) ) ;
#121 = DIRECTION ( 'NONE',  ( 1.000000000000000000, 0.0000000000000000000, 0.0000000000000000000 ) ) ;
#122 = CARTESIAN_POINT ( 'NONE',  ( 1.769930361711786712E-14, -6.208080014834759960E-16, 5.069282032302756313 ) ) ;
#123 = DIRECTION ( 'NONE',  ( 4.275831445896958607E-31, 1.000000000000000000, 1.224646799147353207E-16 ) ) ;
#124 = DIRECTION ( 'NONE',  ( 3.491481338843133355E-15, -1.224646799147353207E-16, 1.000000000000000000 ) ) ;
#125 = CARTESIAN_POINT ( 'NONE',  ( 0.0000000000000000000, 0.3772649730810376800, 0.0000000000000000000 ) ) ;
#126 = ORIENTED_EDGE ( 'NONE', *, *, #4, .T. ) ;
#127 = CONICAL_SURFACE ( 'NONE', #295, 0.3949999999999995182, 0.5235987755982963732 ) ;
#128 = APPROVAL_PERSON_ORGANIZATION ( #119, #76, #210 ) ;
#129 = CIRCLE ( 'NONE', #285, 0.4349999999999993872 ) ;
#130 = ADVANCED_FACE ( 'NONE', ( #41, #224 ), #245, .T. ) ;
#131 = EDGE_LOOP ( 'NONE', ( #208 ) ) ;
#132 = AXIS2_PLACEMENT_3D ( 'NONE', #25, #205, #121 ) ;
#133 = AXIS2_PLACEMENT_3D ( 'NONE', #248, #268, #112 ) ;
#134 = ADVANCED_FACE ( 'NONE', ( #15, #59 ), #11, .T. ) ;
#135 = DATE_AND_TIME ( #98, #7 ) ;
#136 = DIRECTION ( 'NONE',  ( -3.491481338843133355E-15, 1.224646799147353207E-16, -1.000000000000000000 ) ) ;
#137 = DIRECTION ( 'NONE',  ( 4.275831445896959482E-31, 1.000000000000000000, 1.224646799147353207E-16 ) ) ;
#138 = PERSON_AND_ORGANIZATION_ROLE ( 'design_supplier' ) ;
#139 = SECURITY_CLASSIFICATION ( '', '', #227 ) ;
#140 =( GEOMETRIC_REPRESENTATION_CONTEXT ( 3 ) GLOBAL_UNCERTAINTY_ASSIGNED_CONTEXT ( ( #302 ) ) GLOBAL_UNIT_ASSIGNED_CONTEXT ( ( #251, #156, #294 ) ) REPRESENTATION_CONTEXT ( 'NONE', 'WORKASPACE' ) );
#141 = DATE_TIME_ROLE ( 'creation_date' ) ;
#142 = VERTEX_POINT ( 'NONE', #21 ) ;
#143 = PERSON_AND_ORGANIZATION ( #252, #231 ) ;
#144 = DIRECTION ( 'NONE',  ( -3.491481338843133355E-15, 1.224646799147353207E-16, -1.000000000000000000 ) ) ;
#145 = DIRECTION ( 'NONE',  ( -3.491481338843133355E-15, 1.224646799147353207E-16, -1.000000000000000000 ) ) ;
#146 = CARTESIAN_POINT ( 'NONE',  ( 1.326762908760390423E-13, -4.653657836759941941E-15, 38.00000000000000000 ) ) ;
#147 = EDGE_CURVE ( 'NONE', #158, #158, #50, .T. ) ;
#148 = CARTESIAN_POINT ( 'NONE',  ( -1.613121435335370459E-31, 5.658068340339486513E-33, -4.620163417141051175E-17 ) ) ;
#149 = DATE_AND_TIME ( #100, #301 ) ;
#150 = AXIS2_PLACEMENT_3D ( 'NONE', #12, #203, #272 ) ;
#151 = AXIS2_PLACEMENT_3D ( 'NONE', #23, #120, #96 ) ;
#152 = EDGE_LOOP ( 'NONE', ( #85 ) ) ;
#153 = APPROVAL ( #64, 'UNSPECIFIED' ) ;
#154 = DATE_AND_TIME ( #186, #58 ) ;
#155 = CARTESIAN_POINT ( 'NONE',  ( 3.491481338843132369E-16, -1.224646799147352807E-17, 0.09999999999999996392 ) ) ;
#156 =( NAMED_UNIT ( * ) PLANE_ANGLE_UNIT ( ) SI_UNIT ( $, .RADIAN. ) );
#157 = ORIENTED_EDGE ( 'NONE', *, *, #99, .T. ) ;
#158 = VERTEX_POINT ( 'NONE', #68 ) ;
#159 = DIRECTION ( 'NONE',  ( 0.0000000000000000000, -1.000000000000000000, 0.0000000000000000000 ) ) ;
#160 = VERTEX_POINT ( 'NONE', #92 ) ;
#161 = CARTESIAN_POINT ( 'NONE',  ( 1.326762908760390423E-13, 8.998558695971103225E-33, 38.00000000000000000 ) ) ;
#162 = PLANE ( 'NONE',  #213 ) ;
#163 = DIRECTION ( 'NONE',  ( 0.0000000000000000000, 1.000000000000000000, 0.0000000000000000000 ) ) ;
#164 = CARTESIAN_POINT ( 'NONE',  ( 5.391456009948087605E-14, -1.891068204166429721E-15, 15.44174373772964692 ) ) ;
#165 = FACE_OUTER_BOUND ( 'NONE', #177, .T. ) ;
#166 = CC_DESIGN_DATE_AND_TIME_ASSIGNMENT ( #149, #241, ( #139 ) ) ;
#167 = DIRECTION ( 'NONE',  ( 3.491481338843133355E-15, -1.224646799147353207E-16, 1.000000000000000000 ) ) ;
#168 = MANIFOLD_SOLID_BREP ( 'Corps-Déplacer/Copier1[2]', #223 ) ;
#169 = AXIS2_PLACEMENT_3D ( 'NONE', #43, #38, #6 ) ;
#170 = COORDINATED_UNIVERSAL_TIME_OFFSET ( 1, 0, .AHEAD. ) ;
#171 = ORIENTED_EDGE ( 'NONE', *, *, #147, .F. ) ;
#172 = APPROVAL_STATUS ( 'not_yet_approved' ) ;
#173 = DIRECTION ( 'NONE',  ( -4.275831445896958607E-31, -1.000000000000000000, -1.224646799147353207E-16 ) ) ;
#174 = AXIS2_PLACEMENT_3D ( 'NONE', #122, #93, #67 ) ;
#175 = EDGE_LOOP ( 'NONE', ( #126 ) ) ;
#176 = PRODUCT_DEFINITION_FORMATION_WITH_SPECIFIED_SOURCE ( 'ANY', '', #237, .NOT_KNOWN. ) ;
#177 = EDGE_LOOP ( 'NONE', ( #157 ) ) ;
#178 = DIRECTION ( 'NONE',  ( 0.0000000000000000000, 1.000000000000000000, 0.0000000000000000000 ) ) ;
#179 = AXIS2_PLACEMENT_3D ( 'NONE', #48, #124, #173 ) ;
#180 = DIRECTION ( 'NONE',  ( 0.0000000000000000000, 1.000000000000000000, 0.0000000000000000000 ) ) ;
#181 = CARTESIAN_POINT ( 'NONE',  ( 3.491481338843134341E-16, 0.4349999999999993872, 0.1000000000000000194 ) ) ;
#182 = EDGE_CURVE ( 'NONE', #293, #293, #129, .T. ) ;
#183 = DIRECTION ( 'NONE',  ( 4.427425159510893230E-31, 1.000000000000000000, 1.246209393661501098E-16 ) ) ;
#184 = CC_DESIGN_DATE_AND_TIME_ASSIGNMENT ( #42, #141, ( #215 ) ) ;
#185 = FACE_OUTER_BOUND ( 'NONE', #258, .T. ) ;
#186 = CALENDAR_DATE ( 2021, 1, 12 ) ;
#187 = VERTEX_POINT ( 'NONE', #278 ) ;
#188 = CC_DESIGN_APPROVAL ( #27, ( #139 ) ) ;
#189 = AXIS2_PLACEMENT_3D ( 'NONE', #33, #91, #103 ) ;
#190 = PERSON_AND_ORGANIZATION ( #252, #231 ) ;
#191 = CARTESIAN_POINT ( 'NONE',  ( 5.391456009948087605E-14, -1.891068204166429721E-15, 15.44174373772964692 ) ) ;
#192 = ADVANCED_FACE ( 'NONE', ( #202 ), #273, .F. ) ;
#193 = PERSON_AND_ORGANIZATION ( #252, #231 ) ;
#194 = FACE_BOUND ( 'NONE', #214, .T. ) ;
#195 = AXIS2_PLACEMENT_3D ( 'NONE', #89, #286, #137 ) ;
#196 = ADVANCED_FACE ( 'NONE', ( #84, #225 ), #292, .F. ) ;
#197 = ORIENTED_EDGE ( 'NONE', *, *, #182, .F. ) ;
#198 = ADVANCED_BREP_SHAPE_REPRESENTATION ( '200771', ( #263, #168, #132 ), #140 ) ;
#199 = CARTESIAN_POINT ( 'NONE',  ( 1.745740669421566678E-14, -6.123233995736766282E-16, 5.000000000000000000 ) ) ;
#200 = ORIENTED_EDGE ( 'NONE', *, *, #147, .T. ) ;
#201 = CARTESIAN_POINT ( 'NONE',  ( 1.769930361711786712E-14, -6.208080014834759960E-16, 5.069282032302756313 ) ) ;
#202 = FACE_OUTER_BOUND ( 'NONE', #77, .T. ) ;
#203 = DIRECTION ( 'NONE',  ( -3.491481338843133355E-15, 1.224646799147353207E-16, -1.000000000000000000 ) ) ;
#204 = FACE_OUTER_BOUND ( 'NONE', #36, .T. ) ;
#205 = DIRECTION ( 'NONE',  ( 0.0000000000000000000, 0.0000000000000000000, 1.000000000000000000 ) ) ;
#206 = AXIS2_PLACEMENT_3D ( 'NONE', #148, #73, #29 ) ;
#207 = EDGE_CURVE ( 'NONE', #160, #160, #34, .T. ) ;
#208 = ORIENTED_EDGE ( 'NONE', *, *, #207, .F. ) ;
#209 = FACE_OUTER_BOUND ( 'NONE', #131, .T. ) ;
#210 = APPROVAL_ROLE ( '' ) ;
#211 = CIRCLE ( 'NONE', #169, 0.4349999999999999978 ) ;
#212 = CARTESIAN_POINT ( 'NONE',  ( 3.142333204958820020E-14, -1.102182119232617714E-15, 9.000000000000000000 ) ) ;
#213 = AXIS2_PLACEMENT_3D ( 'NONE', #45, #229, #275 ) ;
#214 = EDGE_LOOP ( 'NONE', ( #244 ) ) ;
#215 = PRODUCT_DEFINITION ( 'UNKNOWN', '', #176, #257 ) ;
#216 = ORIENTED_EDGE ( 'NONE', *, *, #75, .T. ) ;
#217 = EDGE_LOOP ( 'NONE', ( #62 ) ) ;
#218 = CC_DESIGN_PERSON_AND_ORGANIZATION_ASSIGNMENT ( #190, #95, ( #237 ) ) ;
#219 = DIRECTION ( 'NONE',  ( -3.491481338843133355E-15, 1.224646799147353207E-16, -1.000000000000000000 ) ) ;
#220 = CIRCLE ( 'NONE', #174, 0.3949999999999995182 ) ;
#221 = ORIENTED_EDGE ( 'NONE', *, *, #207, .T. ) ;
#222 = DIRECTION ( 'NONE',  ( -3.491481338843133355E-15, 1.224646799147353207E-16, -1.000000000000000000 ) ) ;
#223 = CLOSED_SHELL ( 'NONE', ( #192, #259, #130, #247 ) ) ;
#224 = FACE_OUTER_BOUND ( 'NONE', #243, .T. ) ;
#225 = FACE_OUTER_BOUND ( 'NONE', #108, .T. ) ;
#226 = COORDINATED_UNIVERSAL_TIME_OFFSET ( 1, 0, .AHEAD. ) ;
#227 = SECURITY_CLASSIFICATION_LEVEL ( 'unclassified' ) ;
#228 = DIRECTION ( 'NONE',  ( 4.275831445896958607E-31, 1.000000000000000000, 1.224646799147353207E-16 ) ) ;
#229 = DIRECTION ( 'NONE',  ( 3.491481338843133355E-15, -1.224646799147353207E-16, 1.000000000000000000 ) ) ;
#230 = DIRECTION ( 'NONE',  ( 0.0000000000000000000, 1.000000000000000000, 0.0000000000000000000 ) ) ;
#231 = ORGANIZATION ( 'UNSPECIFIED', 'UNSPECIFIED', '' ) ;
#232 = CLOSED_SHELL ( 'NONE', ( #78, #114, #106, #196, #256, #134, #287, #10 ) ) ;
#233 = COORDINATED_UNIVERSAL_TIME_OFFSET ( 1, 0, .AHEAD. ) ;
#234 = DIRECTION ( 'NONE',  ( -3.491481338843133355E-15, 1.224646799147353207E-16, -1.000000000000000000 ) ) ;
#235 = APPROVAL_PERSON_ORGANIZATION ( #249, #153, #20 ) ;
#236 = CONICAL_SURFACE ( 'NONE', #111, 1.200000000000003286, 0.7853981633974453924 ) ;
#237 = PRODUCT ( '200771', '200771', '', ( #296 ) ) ;
#238 = SHAPE_DEFINITION_REPRESENTATION ( #53, #198 ) ;
#239 = ORIENTED_EDGE ( 'NONE', *, *, #14, .T. ) ;
#240 = DIRECTION ( 'NONE',  ( 3.491481338843133355E-15, -1.224646799147353207E-16, 1.000000000000000000 ) ) ;
#241 = DATE_TIME_ROLE ( 'classification_date' ) ;
#242 = CARTESIAN_POINT ( 'NONE',  ( 3.142333204958820020E-14, -1.301042606982605321E-15, 9.000000000000000000 ) ) ;
#243 = EDGE_LOOP ( 'NONE', ( #26 ) ) ;
#244 = ORIENTED_EDGE ( 'NONE', *, *, #2, .F. ) ;
#245 = CYLINDRICAL_SURFACE ( 'NONE', #195, 0.4349999999999997202 ) ;
#246 = PERSON_AND_ORGANIZATION ( #252, #231 ) ;
#247 = ADVANCED_FACE ( 'NONE', ( #72 ), #162, .T. ) ;
#248 = CARTESIAN_POINT ( 'NONE',  ( 0.0000000000000000000, 0.0000000000000000000, 0.0000000000000000000 ) ) ;
#249 = PERSON_AND_ORGANIZATION ( #252, #231 ) ;
#250 = COORDINATED_UNIVERSAL_TIME_OFFSET ( 1, 0, .AHEAD. ) ;
#251 =( LENGTH_UNIT ( ) NAMED_UNIT ( * ) SI_UNIT ( .MILLI., .METRE. ) );
#252 = PERSON ( 'UNSPECIFIED', 'UNSPECIFIED', 'UNSPECIFIED', ('UNSPECIFIED'), ('UNSPECIFIED'), ('UNSPECIFIED') ) ;
#253 = CARTESIAN_POINT ( 'NONE',  ( 3.491481338843132369E-16, -1.224646799147352807E-17, 0.09999999999999996392 ) ) ;
#254 = PLANE ( 'NONE',  #179 ) ;
#255 = CARTESIAN_POINT ( 'NONE',  ( 1.745740669421566678E-14, 0.4349999999999993872, 5.000000000000000000 ) ) ;
#256 = ADVANCED_FACE ( 'NONE', ( #70, #97 ), #74, .T. ) ;
#257 = DESIGN_CONTEXT ( 'detailed design', #116, 'design' ) ;
#258 = EDGE_LOOP ( 'NONE', ( #283 ) ) ;
#259 = ADVANCED_FACE ( 'NONE', ( #194, #185 ), #86, .T. ) ;
#260 = APPROVAL_ROLE ( '' ) ;
#261 = EDGE_LOOP ( 'NONE', ( #284 ) ) ;
#262 = DIRECTION ( 'NONE',  ( -4.275831445896958607E-31, -1.000000000000000000, -1.224646799147353207E-16 ) ) ;
#263 = MANIFOLD_SOLID_BREP ( 'Corps-Déplacer/Copier1[1]', #232 ) ;
#264 = EDGE_LOOP ( 'NONE', ( #216 ) ) ;
#265 = ORIENTED_EDGE ( 'NONE', *, *, #117, .F. ) ;
#266 = EDGE_LOOP ( 'NONE', ( #221 ) ) ;
#267 = CC_DESIGN_PERSON_AND_ORGANIZATION_ASSIGNMENT ( #143, #44, ( #215 ) ) ;
#268 = DIRECTION ( 'NONE',  ( -3.491481338843133355E-15, 1.224646799147353207E-16, -1.000000000000000000 ) ) ;
#269 = PRODUCT_RELATED_PRODUCT_CATEGORY ( 'detail', '', ( #237 ) ) ;
#270 = APPROVAL_DATE_TIME ( #135, #153 ) ;
#271 = AXIS2_PLACEMENT_3D ( 'NONE', #113, #288, #39 ) ;
#272 = DIRECTION ( 'NONE',  ( 0.0000000000000000000, 1.000000000000000000, 0.0000000000000000000 ) ) ;
#273 = PLANE ( 'NONE',  #16 ) ;
#274 = CARTESIAN_POINT ( 'NONE',  ( 1.745740669421566678E-14, 0.4349999999999993872, 5.000000000000000000 ) ) ;
#275 = DIRECTION ( 'NONE',  ( -4.275831445896958607E-31, -1.000000000000000000, -1.224646799147353207E-16 ) ) ;
#276 = CC_DESIGN_APPROVAL ( #76, ( #176 ) ) ;
#277 = APPLICATION_PROTOCOL_DEFINITION ( 'international standard', 'config_control_design', 1994, #102 ) ;
#278 = CARTESIAN_POINT ( 'NONE',  ( 3.142333204958820020E-14, 0.3949999999999990741, 9.000000000000000000 ) ) ;
#279 = AXIS2_PLACEMENT_3D ( 'NONE', #199, #35, #180 ) ;
#280 = CALENDAR_DATE ( 2021, 1, 12 ) ;
#281 = EDGE_LOOP ( 'NONE', ( #197 ) ) ;
#282 = EDGE_LOOP ( 'NONE', ( #171 ) ) ;
#283 = ORIENTED_EDGE ( 'NONE', *, *, #182, .T. ) ;
#284 = ORIENTED_EDGE ( 'NONE', *, *, #14, .F. ) ;
#285 = AXIS2_PLACEMENT_3D ( 'NONE', #155, #136, #183 ) ;
#286 = DIRECTION ( 'NONE',  ( -3.491481338843133355E-15, 1.224646799147353207E-16, -1.000000000000000000 ) ) ;
#287 = ADVANCED_FACE ( 'NONE', ( #209, #47 ), #236, .T. ) ;
#288 = DIRECTION ( 'NONE',  ( -3.491481338843133355E-15, 1.224646799147353207E-16, -1.000000000000000000 ) ) ;
#289 = CARTESIAN_POINT ( 'NONE',  ( -8.065607176676852294E-32, 2.829034170169743257E-33, -2.310081708570525587E-17 ) ) ;
#290 = FACE_OUTER_BOUND ( 'NONE', #264, .T. ) ;
#291 = PERSON_AND_ORGANIZATION ( #252, #231 ) ;
#292 = TOROIDAL_SURFACE ( 'NONE', #104, 2.395000000000000462, 2.000000000000000000 ) ;
#293 = VERTEX_POINT ( 'NONE', #181 ) ;
#294 =( NAMED_UNIT ( * ) SI_UNIT ( $, .STERADIAN. ) SOLID_ANGLE_UNIT ( ) );
#295 = AXIS2_PLACEMENT_3D ( 'NONE', #201, #222, #178 ) ;
#296 = MECHANICAL_CONTEXT ( 'NONE', #102, 'mechanical' ) ;
#297 = DIRECTION ( 'NONE',  ( 0.0000000000000000000, 1.000000000000000000, 0.0000000000000000000 ) ) ;
#298 = CC_DESIGN_PERSON_AND_ORGANIZATION_ASSIGNMENT ( #105, #79, ( #139 ) ) ;
#299 = VERTEX_POINT ( 'NONE', #63 ) ;
#300 = AXIS2_PLACEMENT_3D ( 'NONE', #164, #24, #159 ) ;
#301 = LOCAL_TIME ( 11, 40, 2.000000000000000000, #170 ) ;
#302 = UNCERTAINTY_MEASURE_WITH_UNIT (LENGTH_MEASURE( 1.000000000000000082E-05 ), #251, 'distance_accuracy_value', 'NONE');
#303 = EDGE_LOOP ( 'NONE', ( #18 ) ) ;
ENDSEC;
END-ISO-10303-21;
