ISO-10303-21;
HEADER;
FILE_DESCRIPTION (( 'STEP AP203' ),
    '1' );
FILE_NAME ('200770.step',
    '2021-12-01T10:40:01',
    ( '' ),
    ( '' ),
    'SwSTEP 2.0',
    'SolidWorks 2019',
    '' );
FILE_SCHEMA (( 'CONFIG_CONTROL_DESIGN' ));
ENDSEC;

DATA;
#1 = CC_DESIGN_DATE_AND_TIME_ASSIGNMENT ( #295, #288, ( #37 ) ) ;
#2 = VERTEX_POINT ( 'NONE', #117 ) ;
#3 = CARTESIAN_POINT ( 'NONE',  ( 1.745740669421566678E-14, 3.224483532722985236E-33, 5.000000000000000000 ) ) ;
#4 = VERTEX_POINT ( 'NONE', #68 ) ;
#5 = FACE_OUTER_BOUND ( 'NONE', #265, .T. ) ;
#6 = CC_DESIGN_DATE_AND_TIME_ASSIGNMENT ( #223, #98, ( #257 ) ) ;
#7 = ADVANCED_FACE ( 'NONE', ( #270 ), #8, .F. ) ;
#8 = PLANE ( 'NONE',  #190 ) ;
#9 = PRODUCT_RELATED_PRODUCT_CATEGORY ( 'detail', '', ( #184 ) ) ;
#10 = AXIS2_PLACEMENT_3D ( 'NONE', #69, #118, #27 ) ;
#11 = EDGE_LOOP ( 'NONE', ( #198 ) ) ;
#12 = COORDINATED_UNIVERSAL_TIME_OFFSET ( 1, 0, .AHEAD. ) ;
#13 = APPROVAL_DATE_TIME ( #39, #254 ) ;
#14 = ORIENTED_EDGE ( 'NONE', *, *, #54, .F. ) ;
#15 = MECHANICAL_CONTEXT ( 'NONE', #114, 'mechanical' ) ;
#16 = ORIENTED_EDGE ( 'NONE', *, *, #196, .T. ) ;
#17 = AXIS2_PLACEMENT_3D ( 'NONE', #26, #211, #303 ) ;
#18 = COORDINATED_UNIVERSAL_TIME_OFFSET ( 1, 0, .AHEAD. ) ;
#19 = DIRECTION ( 'NONE',  ( -3.491481338843133355E-15, 1.224646799147353207E-16, -1.000000000000000000 ) ) ;
#20 = APPLICATION_PROTOCOL_DEFINITION ( 'international standard', 'config_control_design', 1994, #114 ) ;
#21 = CARTESIAN_POINT ( 'NONE',  ( 3.263591079328455776E-14, -1.144713656224131427E-15, 9.347296355333845952 ) ) ;
#22 = APPROVAL ( #72, 'UNSPECIFIED' ) ;
#23 = FACE_OUTER_BOUND ( 'NONE', #169, .T. ) ;
#24 = AXIS2_PLACEMENT_3D ( 'NONE', #84, #248, #180 ) ;
#25 = CARTESIAN_POINT ( 'NONE',  ( 1.316288464743861212E-13, -4.616918432785521081E-15, 37.69999999999999574 ) ) ;
#26 = CARTESIAN_POINT ( 'NONE',  ( 1.326762908760390423E-13, -4.653657836759941941E-15, 38.00000000000000000 ) ) ;
#27 = DIRECTION ( 'NONE',  ( 0.0000000000000000000, 1.000000000000000000, 0.0000000000000000000 ) ) ;
#28 = AXIS2_PLACEMENT_3D ( 'NONE', #207, #138, #44 ) ;
#29 = CONICAL_SURFACE ( 'NONE', #33, 1.499999999999997335, 0.1745329251994260922 ) ;
#30 = FACE_BOUND ( 'NONE', #11, .T. ) ;
#31 = CARTESIAN_POINT ( 'NONE',  ( 1.769930361711787028E-14, 0.3899999999999989031, 5.069282032302757202 ) ) ;
#32 = AXIS2_PLACEMENT_3D ( 'NONE', #278, #253, #137 ) ;
#33 = AXIS2_PLACEMENT_3D ( 'NONE', #162, #50, #236 ) ;
#34 = FACE_OUTER_BOUND ( 'NONE', #38, .T. ) ;
#35 = EDGE_LOOP ( 'NONE', ( #244 ) ) ;
#36 = EDGE_LOOP ( 'NONE', ( #167 ) ) ;
#37 = SECURITY_CLASSIFICATION ( '', '', #157 ) ;
#38 = EDGE_LOOP ( 'NONE', ( #173 ) ) ;
#39 = DATE_AND_TIME ( #219, #75 ) ;
#40 = ORIENTED_EDGE ( 'NONE', *, *, #208, .F. ) ;
#41 = APPLICATION_PROTOCOL_DEFINITION ( 'international standard', 'config_control_design', 1994, #89 ) ;
#42 = APPROVAL_STATUS ( 'not_yet_approved' ) ;
#43 = CARTESIAN_POINT ( 'NONE',  ( 1.326762908760390423E-13, 8.998558695971103225E-33, 38.00000000000000000 ) ) ;
#44 = DIRECTION ( 'NONE',  ( 4.275831445896958607E-31, 1.000000000000000000, 1.224646799147353207E-16 ) ) ;
#45 = DIRECTION ( 'NONE',  ( 0.0000000000000000000, 1.000000000000000000, 0.0000000000000000000 ) ) ;
#46 = CARTESIAN_POINT ( 'NONE',  ( 0.0000000000000000000, 0.0000000000000000000, 0.0000000000000000000 ) ) ;
#47 = VERTEX_POINT ( 'NONE', #285 ) ;
#48 = AXIS2_PLACEMENT_3D ( 'NONE', #21, #251, #45 ) ;
#49 = CC_DESIGN_SECURITY_CLASSIFICATION ( #37, ( #242 ) ) ;
#50 = DIRECTION ( 'NONE',  ( 3.491481338843133355E-15, -1.224646799147353207E-16, 1.000000000000000000 ) ) ;
#51 = AXIS2_PLACEMENT_3D ( 'NONE', #175, #153, #256 ) ;
#52 = ORIENTED_EDGE ( 'NONE', *, *, #102, .T. ) ;
#53 = EDGE_LOOP ( 'NONE', ( #171 ) ) ;
#54 = EDGE_CURVE ( 'NONE', #215, #215, #222, .T. ) ;
#55 = ADVANCED_FACE ( 'NONE', ( #224 ), #63, .F. ) ;
#56 = AXIS2_PLACEMENT_3D ( 'NONE', #25, #210, #66 ) ;
#57 = CALENDAR_DATE ( 2021, 1, 12 ) ;
#58 = DIRECTION ( 'NONE',  ( 3.491481338843133355E-15, -1.224646799147353207E-16, 1.000000000000000000 ) ) ;
#59 = PERSON ( 'UNSPECIFIED', 'UNSPECIFIED', 'UNSPECIFIED', ('UNSPECIFIED'), ('UNSPECIFIED'), ('UNSPECIFIED') ) ;
#60 = CARTESIAN_POINT ( 'NONE',  ( 1.769930361711787028E-14, -6.208080014834760946E-16, 5.069282032302757202 ) ) ;
#61 = PERSON_AND_ORGANIZATION ( #59, #200 ) ;
#62 = CYLINDRICAL_SURFACE ( 'NONE', #199, 0.3899999999999997358 ) ;
#63 = PLANE ( 'NONE',  #150 ) ;
#64 = AXIS2_PLACEMENT_3D ( 'NONE', #255, #83, #301 ) ;
#65 = DIRECTION ( 'NONE',  ( 4.275831445896958607E-31, 1.000000000000000000, 1.224646799147353207E-16 ) ) ;
#66 = DIRECTION ( 'NONE',  ( 0.0000000000000000000, 1.000000000000000000, 0.0000000000000000000 ) ) ;
#67 = AXIS2_PLACEMENT_3D ( 'NONE', #115, #212, #282 ) ;
#68 = CARTESIAN_POINT ( 'NONE',  ( 1.326762908760390423E-13, 1.199999999999998845, 38.00000000000000000 ) ) ;
#69 = CARTESIAN_POINT ( 'NONE',  ( 1.769930361711787028E-14, -6.208080014834760946E-16, 5.069282032302757202 ) ) ;
#70 = FACE_OUTER_BOUND ( 'NONE', #148, .T. ) ;
#71 = EDGE_LOOP ( 'NONE', ( #16 ) ) ;
#72 = APPROVAL_STATUS ( 'not_yet_approved' ) ;
#73 = AXIS2_PLACEMENT_3D ( 'NONE', #135, #19, #113 ) ;
#74 = PERSON_AND_ORGANIZATION_ROLE ( 'creator' ) ;
#75 = LOCAL_TIME ( 11, 40, 1.000000000000000000, #128 ) ;
#76 = ORIENTED_EDGE ( 'NONE', *, *, #196, .F. ) ;
#77 = CARTESIAN_POINT ( 'NONE',  ( 0.0000000000000000000, 0.0000000000000000000, 0.0000000000000000000 ) ) ;
#78 = DIRECTION ( 'NONE',  ( 0.0000000000000000000, 1.000000000000000000, 0.0000000000000000000 ) ) ;
#79 = APPROVAL_DATE_TIME ( #204, #209 ) ;
#80 = DIRECTION ( 'NONE',  ( 0.0000000000000000000, 1.000000000000000000, 0.0000000000000000000 ) ) ;
#81 = FACE_OUTER_BOUND ( 'NONE', #289, .T. ) ;
#82 = EDGE_CURVE ( 'NONE', #146, #146, #155, .T. ) ;
#83 = DIRECTION ( 'NONE',  ( 3.491481338843133355E-15, -1.224646799147353207E-16, 1.000000000000000000 ) ) ;
#84 = CARTESIAN_POINT ( 'NONE',  ( 3.142333204958820020E-14, -1.301042606982605321E-15, 9.000000000000000000 ) ) ;
#85 = CC_DESIGN_PERSON_AND_ORGANIZATION_ASSIGNMENT ( #170, #275, ( #242 ) ) ;
#86 = CYLINDRICAL_SURFACE ( 'NONE', #96, 0.4299999999999997158 ) ;
#87 = CLOSED_SHELL ( 'NONE', ( #192, #134, #252, #284 ) ) ;
#88 = CARTESIAN_POINT ( 'NONE',  ( 0.0000000000000000000, 0.3722649730810376756, 0.0000000000000000000 ) ) ;
#89 = APPLICATION_CONTEXT ( 'configuration controlled 3d designs of mechanical parts and assemblies' ) ;
#90 = CARTESIAN_POINT ( 'NONE',  ( 3.263591079328455776E-14, 0.4203844939755802534, 9.347296355333845952 ) ) ;
#91 = VERTEX_POINT ( 'NONE', #88 ) ;
#92 = ADVANCED_FACE ( 'NONE', ( #159, #296 ), #62, .T. ) ;
#93 = CC_DESIGN_PERSON_AND_ORGANIZATION_ASSIGNMENT ( #271, #297, ( #257 ) ) ;
#94 = CC_DESIGN_APPROVAL ( #254, ( #242 ) ) ;
#95 = VERTEX_POINT ( 'NONE', #90 ) ;
#96 = AXIS2_PLACEMENT_3D ( 'NONE', #46, #145, #141 ) ;
#97 = EDGE_LOOP ( 'NONE', ( #127 ) ) ;
#98 = DATE_TIME_ROLE ( 'creation_date' ) ;
#99 = EDGE_LOOP ( 'NONE', ( #240 ) ) ;
#100 = CC_DESIGN_PERSON_AND_ORGANIZATION_ASSIGNMENT ( #131, #269, ( #37 ) ) ;
#101 = PERSON_AND_ORGANIZATION ( #59, #200 ) ;
#102 = EDGE_CURVE ( 'NONE', #95, #95, #228, .T. ) ;
#103 = AXIS2_PLACEMENT_3D ( 'NONE', #230, #279, #183 ) ;
#104 = EDGE_LOOP ( 'NONE', ( #239 ) ) ;
#105 = MANIFOLD_SOLID_BREP ( 'Corps-Déplacer/Copier1[1]', #124 ) ;
#106 = DIRECTION ( 'NONE',  ( 4.275831445896958607E-31, 1.000000000000000000, 1.224646799147353207E-16 ) ) ;
#107 = MANIFOLD_SOLID_BREP ( 'Corps-Déplacer/Copier1[2]', #87 ) ;
#108 = PERSON_AND_ORGANIZATION ( #59, #200 ) ;
#109 = DIRECTION ( 'NONE',  ( 0.0000000000000000000, 1.000000000000000000, 0.0000000000000000000 ) ) ;
#110 = CIRCLE ( 'NONE', #56, 1.500000000000003331 ) ;
#111 = CYLINDRICAL_SURFACE ( 'NONE', #28, 1.500000000000000444 ) ;
#112 = DIRECTION ( 'NONE',  ( -3.491481338843133355E-15, 1.224646799147353207E-16, -1.000000000000000000 ) ) ;
#113 = DIRECTION ( 'NONE',  ( 4.478906847412182716E-31, 1.000000000000000000, 1.260700200564541817E-16 ) ) ;
#114 = APPLICATION_CONTEXT ( 'configuration controlled 3d designs of mechanical parts and assemblies' ) ;
#115 = CARTESIAN_POINT ( 'NONE',  ( 5.401356597268345407E-14, -1.894540862730158510E-15, 15.47010014682773615 ) ) ;
#116 = LOCAL_TIME ( 11, 40, 1.000000000000000000, #18 ) ;
#117 = CARTESIAN_POINT ( 'NONE',  ( 1.745740669421566678E-14, 0.4299999999999993827, 5.000000000000000000 ) ) ;
#118 = DIRECTION ( 'NONE',  ( -3.491481338843133355E-15, 1.224646799147353207E-16, -1.000000000000000000 ) ) ;
#119 = AXIS2_PLACEMENT_3D ( 'NONE', #272, #156, #80 ) ;
#120 = AXIS2_PLACEMENT_3D ( 'NONE', #77, #201, #126 ) ;
#121 = CARTESIAN_POINT ( 'NONE',  ( 1.745740669421566678E-14, -6.123233995736766282E-16, 5.000000000000000000 ) ) ;
#122 = EDGE_LOOP ( 'NONE', ( #76 ) ) ;
#123 = ORIENTED_EDGE ( 'NONE', *, *, #154, .T. ) ;
#124 = CLOSED_SHELL ( 'NONE', ( #7, #261, #92, #161, #277, #182, #214, #55 ) ) ;
#125 =( GEOMETRIC_REPRESENTATION_CONTEXT ( 3 ) GLOBAL_UNCERTAINTY_ASSIGNED_CONTEXT ( ( #133 ) ) GLOBAL_UNIT_ASSIGNED_CONTEXT ( ( #262, #186, #281 ) ) REPRESENTATION_CONTEXT ( 'NONE', 'WORKASPACE' ) );
#126 = DIRECTION ( 'NONE',  ( 1.000000000000000000, 0.0000000000000000000, 0.0000000000000000000 ) ) ;
#127 = ORIENTED_EDGE ( 'NONE', *, *, #264, .T. ) ;
#128 = COORDINATED_UNIVERSAL_TIME_OFFSET ( 1, 0, .AHEAD. ) ;
#129 = ORIENTED_EDGE ( 'NONE', *, *, #82, .F. ) ;
#130 = CONICAL_SURFACE ( 'NONE', #64, 0.4299999999999993827, 0.5235987755982921543 ) ;
#131 = PERSON_AND_ORGANIZATION ( #59, #200 ) ;
#132 = CARTESIAN_POINT ( 'NONE',  ( 0.0000000000000000000, 0.0000000000000000000, 0.0000000000000000000 ) ) ;
#133 = UNCERTAINTY_MEASURE_WITH_UNIT (LENGTH_MEASURE( 1.000000000000000082E-05 ), #262, 'distance_accuracy_value', 'NONE');
#134 = ADVANCED_FACE ( 'NONE', ( #158, #226 ), #130, .T. ) ;
#135 = CARTESIAN_POINT ( 'NONE',  ( 3.491481338843132369E-16, -1.224646799147352807E-17, 0.09999999999999996392 ) ) ;
#136 = AXIS2_PLACEMENT_3D ( 'NONE', #121, #260, #144 ) ;
#137 = DIRECTION ( 'NONE',  ( -4.275831445896958607E-31, -1.000000000000000000, -1.224646799147353207E-16 ) ) ;
#138 = DIRECTION ( 'NONE',  ( -3.491481338843133355E-15, 1.224646799147353207E-16, -1.000000000000000000 ) ) ;
#139 = EDGE_CURVE ( 'NONE', #2, #2, #206, .T. ) ;
#140 = PRODUCT_DEFINITION_SHAPE ( 'NONE', 'NONE',  #257 ) ;
#141 = DIRECTION ( 'NONE',  ( 4.275831445896958607E-31, 1.000000000000000000, 1.224646799147353207E-16 ) ) ;
#142 = DIRECTION ( 'NONE',  ( 3.491481338843133355E-15, -1.224646799147353207E-16, 1.000000000000000000 ) ) ;
#143 = CIRCLE ( 'NONE', #136, 0.4299999999999999933 ) ;
#144 = DIRECTION ( 'NONE',  ( 0.0000000000000000000, 1.000000000000000000, 0.0000000000000000000 ) ) ;
#145 = DIRECTION ( 'NONE',  ( -3.491481338843133355E-15, 1.224646799147353207E-16, -1.000000000000000000 ) ) ;
#146 = VERTEX_POINT ( 'NONE', #216 ) ;
#147 = CC_DESIGN_APPROVAL ( #209, ( #257 ) ) ;
#148 = EDGE_LOOP ( 'NONE', ( #266 ) ) ;
#149 = ORIENTED_EDGE ( 'NONE', *, *, #208, .T. ) ;
#150 = AXIS2_PLACEMENT_3D ( 'NONE', #43, #276, #65 ) ;
#151 = EDGE_LOOP ( 'NONE', ( #40 ) ) ;
#152 = PERSON_AND_ORGANIZATION ( #59, #200 ) ;
#153 = DIRECTION ( 'NONE',  ( -3.491481338843133355E-15, 1.224646799147353207E-16, -1.000000000000000000 ) ) ;
#154 = EDGE_CURVE ( 'NONE', #4, #4, #185, .T. ) ;
#155 = CIRCLE ( 'NONE', #73, 0.4299999999999993827 ) ;
#156 = DIRECTION ( 'NONE',  ( -3.491481338843133355E-15, 1.224646799147353207E-16, -1.000000000000000000 ) ) ;
#157 = SECURITY_CLASSIFICATION_LEVEL ( 'unclassified' ) ;
#158 = FACE_BOUND ( 'NONE', #99, .T. ) ;
#159 = FACE_OUTER_BOUND ( 'NONE', #217, .T. ) ;
#160 = FACE_OUTER_BOUND ( 'NONE', #151, .T. ) ;
#161 = ADVANCED_FACE ( 'NONE', ( #298, #81 ), #241, .F. ) ;
#162 = CARTESIAN_POINT ( 'NONE',  ( 5.401356597268345407E-14, -1.894540862730158510E-15, 15.47010014682773615 ) ) ;
#163 = VERTEX_POINT ( 'NONE', #234 ) ;
#164 = CC_DESIGN_PERSON_AND_ORGANIZATION_ASSIGNMENT ( #152, #195, ( #184 ) ) ;
#165 = CARTESIAN_POINT ( 'NONE',  ( 3.142333204958820020E-14, 0.3899999999999988476, 9.000000000000000000 ) ) ;
#166 = LOCAL_TIME ( 11, 40, 1.000000000000000000, #243 ) ;
#167 = ORIENTED_EDGE ( 'NONE', *, *, #245, .T. ) ;
#168 = CC_DESIGN_PERSON_AND_ORGANIZATION_ASSIGNMENT ( #61, #74, ( #242 ) ) ;
#169 = EDGE_LOOP ( 'NONE', ( #149 ) ) ;
#170 = PERSON_AND_ORGANIZATION ( #59, #200 ) ;
#171 = ORIENTED_EDGE ( 'NONE', *, *, #54, .T. ) ;
#172 = APPROVAL_DATE_TIME ( #176, #22 ) ;
#173 = ORIENTED_EDGE ( 'NONE', *, *, #139, .F. ) ;
#174 = APPROVAL_STATUS ( 'not_yet_approved' ) ;
#175 = CARTESIAN_POINT ( 'NONE',  ( -1.591742278105885745E-31, 5.583080351206393770E-33, -4.558931077183684266E-17 ) ) ;
#176 = DATE_AND_TIME ( #225, #249 ) ;
#177 = CONICAL_SURFACE ( 'NONE', #17, 1.200000000000003286, 0.7853981633974453924 ) ;
#178 = AXIS2_PLACEMENT_3D ( 'NONE', #3, #142, #258 ) ;
#179 = CALENDAR_DATE ( 2021, 1, 12 ) ;
#180 = DIRECTION ( 'NONE',  ( 4.275831445896958607E-31, 1.000000000000000000, 1.224646799147353207E-16 ) ) ;
#181 = PLANE ( 'NONE',  #32 ) ;
#182 = ADVANCED_FACE ( 'NONE', ( #273, #23 ), #111, .T. ) ;
#183 = DIRECTION ( 'NONE',  ( 0.0000000000000000000, 1.000000000000000000, 0.0000000000000000000 ) ) ;
#184 = PRODUCT ( '200770', '200770', '', ( #15 ) ) ;
#185 = CIRCLE ( 'NONE', #292, 1.200000000000003286 ) ;
#186 =( NAMED_UNIT ( * ) PLANE_ANGLE_UNIT ( ) SI_UNIT ( $, .RADIAN. ) );
#187 = CARTESIAN_POINT ( 'NONE',  ( 1.745740669421566678E-14, 0.4299999999999993827, 5.000000000000000000 ) ) ;
#188 = PLANE ( 'NONE',  #178 ) ;
#189 = FACE_OUTER_BOUND ( 'NONE', #97, .T. ) ;
#190 = AXIS2_PLACEMENT_3D ( 'NONE', #286, #58, #291 ) ;
#191 = FACE_BOUND ( 'NONE', #53, .T. ) ;
#192 = ADVANCED_FACE ( 'NONE', ( #299 ), #181, .F. ) ;
#193 = ORIENTED_EDGE ( 'NONE', *, *, #264, .F. ) ;
#194 = EDGE_LOOP ( 'NONE', ( #246 ) ) ;
#195 = PERSON_AND_ORGANIZATION_ROLE ( 'design_owner' ) ;
#196 = EDGE_CURVE ( 'NONE', #237, #237, #233, .T. ) ;
#197 = SHAPE_DEFINITION_REPRESENTATION ( #140, #302 ) ;
#198 = ORIENTED_EDGE ( 'NONE', *, *, #102, .F. ) ;
#199 = AXIS2_PLACEMENT_3D ( 'NONE', #132, #112, #106 ) ;
#200 = ORGANIZATION ( 'UNSPECIFIED', 'UNSPECIFIED', '' ) ;
#201 = DIRECTION ( 'NONE',  ( 0.0000000000000000000, 0.0000000000000000000, 1.000000000000000000 ) ) ;
#202 = EDGE_LOOP ( 'NONE', ( #294 ) ) ;
#203 = COORDINATED_UNIVERSAL_TIME_OFFSET ( 1, 0, .AHEAD. ) ;
#204 = DATE_AND_TIME ( #179, #166 ) ;
#205 = CARTESIAN_POINT ( 'NONE',  ( 1.326762908760390423E-13, -4.653657836759941941E-15, 38.00000000000000000 ) ) ;
#206 = CIRCLE ( 'NONE', #119, 0.4299999999999999933 ) ;
#207 = CARTESIAN_POINT ( 'NONE',  ( 0.0000000000000000000, 0.0000000000000000000, 0.0000000000000000000 ) ) ;
#208 = EDGE_CURVE ( 'NONE', #47, #47, #110, .T. ) ;
#209 = APPROVAL ( #174, 'UNSPECIFIED' ) ;
#210 = DIRECTION ( 'NONE',  ( -3.491481338843133355E-15, 1.224646799147353207E-16, -1.000000000000000000 ) ) ;
#211 = DIRECTION ( 'NONE',  ( -3.491481338843133355E-15, 1.224646799147353207E-16, -1.000000000000000000 ) ) ;
#212 = DIRECTION ( 'NONE',  ( -3.491481338843133355E-15, 1.224646799147353207E-16, -1.000000000000000000 ) ) ;
#213 = CC_DESIGN_APPROVAL ( #22, ( #37 ) ) ;
#214 = ADVANCED_FACE ( 'NONE', ( #160, #231 ), #177, .T. ) ;
#215 = VERTEX_POINT ( 'NONE', #31 ) ;
#216 = CARTESIAN_POINT ( 'NONE',  ( 3.491481338843134341E-16, 0.4299999999999993827, 0.1000000000000000194 ) ) ;
#217 = EDGE_LOOP ( 'NONE', ( #14 ) ) ;
#218 = EDGE_LOOP ( 'NONE', ( #129 ) ) ;
#219 = CALENDAR_DATE ( 2021, 1, 12 ) ;
#220 = CALENDAR_DATE ( 2021, 1, 12 ) ;
#221 = DIRECTION ( 'NONE',  ( -3.491481338843133355E-15, 1.224646799147353207E-16, -1.000000000000000000 ) ) ;
#222 = CIRCLE ( 'NONE', #238, 0.3899999999999995137 ) ;
#223 = DATE_AND_TIME ( #220, #229 ) ;
#224 = FACE_OUTER_BOUND ( 'NONE', #202, .T. ) ;
#225 = CALENDAR_DATE ( 2021, 1, 12 ) ;
#226 = FACE_OUTER_BOUND ( 'NONE', #35, .T. ) ;
#227 = DIRECTION ( 'NONE',  ( -3.491481338843133355E-15, 1.224646799147353207E-16, -1.000000000000000000 ) ) ;
#228 = CIRCLE ( 'NONE', #48, 0.4203844939755814192 ) ;
#229 = LOCAL_TIME ( 11, 40, 1.000000000000000000, #12 ) ;
#230 = CARTESIAN_POINT ( 'NONE',  ( 3.142333204958820020E-14, -1.102182119232617714E-15, 9.000000000000000000 ) ) ;
#231 = FACE_BOUND ( 'NONE', #268, .T. ) ;
#232 = FACE_OUTER_BOUND ( 'NONE', #218, .T. ) ;
#233 = CIRCLE ( 'NONE', #103, 0.3899999999999999578 ) ;
#234 = CARTESIAN_POINT ( 'NONE',  ( 5.401356597268345407E-14, 1.499999999999995559, 15.47010014682773615 ) ) ;
#235 = APPROVAL_PERSON_ORGANIZATION ( #108, #209, #293 ) ;
#236 = DIRECTION ( 'NONE',  ( 0.0000000000000000000, -1.000000000000000000, 0.0000000000000000000 ) ) ;
#237 = VERTEX_POINT ( 'NONE', #165 ) ;
#238 = AXIS2_PLACEMENT_3D ( 'NONE', #60, #221, #78 ) ;
#239 = ORIENTED_EDGE ( 'NONE', *, *, #139, .T. ) ;
#240 = ORIENTED_EDGE ( 'NONE', *, *, #245, .F. ) ;
#241 = TOROIDAL_SURFACE ( 'NONE', #24, 2.390000000000000124, 2.000000000000000000 ) ;
#242 = PRODUCT_DEFINITION_FORMATION_WITH_SPECIFIED_SOURCE ( 'ANY', '', #184, .NOT_KNOWN. ) ;
#243 = COORDINATED_UNIVERSAL_TIME_OFFSET ( 1, 0, .AHEAD. ) ;
#244 = ORIENTED_EDGE ( 'NONE', *, *, #82, .T. ) ;
#245 = EDGE_CURVE ( 'NONE', #91, #91, #280, .T. ) ;
#246 = ORIENTED_EDGE ( 'NONE', *, *, #267, .F. ) ;
#247 = APPROVAL_ROLE ( '' ) ;
#248 = DIRECTION ( 'NONE',  ( -3.491481338843133355E-15, 1.224646799147353207E-16, -1.000000000000000000 ) ) ;
#249 = LOCAL_TIME ( 11, 40, 1.000000000000000000, #203 ) ;
#250 = PERSON_AND_ORGANIZATION ( #59, #200 ) ;
#251 = DIRECTION ( 'NONE',  ( -3.491481338843133355E-15, 1.224646799147353207E-16, -1.000000000000000000 ) ) ;
#252 = ADVANCED_FACE ( 'NONE', ( #232, #189 ), #86, .T. ) ;
#253 = DIRECTION ( 'NONE',  ( 3.491481338843133355E-15, -1.224646799147353207E-16, 1.000000000000000000 ) ) ;
#254 = APPROVAL ( #42, 'UNSPECIFIED' ) ;
#255 = CARTESIAN_POINT ( 'NONE',  ( 3.491481338843132369E-16, -1.224646799147352807E-17, 0.09999999999999996392 ) ) ;
#256 = DIRECTION ( 'NONE',  ( 4.275831445896958607E-31, 1.000000000000000000, 1.224646799147353207E-16 ) ) ;
#257 = PRODUCT_DEFINITION ( 'UNKNOWN', '', #242, #300 ) ;
#258 = DIRECTION ( 'NONE',  ( -4.275831445896958607E-31, -1.000000000000000000, -1.224646799147353207E-16 ) ) ;
#259 = CIRCLE ( 'NONE', #67, 1.499999999999997335 ) ;
#260 = DIRECTION ( 'NONE',  ( -3.491481338843133355E-15, 1.224646799147353207E-16, -1.000000000000000000 ) ) ;
#261 = ADVANCED_FACE ( 'NONE', ( #34, #191 ), #274, .T. ) ;
#262 =( LENGTH_UNIT ( ) NAMED_UNIT ( * ) SI_UNIT ( .MILLI., .METRE. ) );
#263 = VERTEX_POINT ( 'NONE', #187 ) ;
#264 = EDGE_CURVE ( 'NONE', #263, #263, #143, .T. ) ;
#265 = EDGE_LOOP ( 'NONE', ( #193 ) ) ;
#266 = ORIENTED_EDGE ( 'NONE', *, *, #267, .T. ) ;
#267 = EDGE_CURVE ( 'NONE', #163, #163, #259, .T. ) ;
#268 = EDGE_LOOP ( 'NONE', ( #123 ) ) ;
#269 = PERSON_AND_ORGANIZATION_ROLE ( 'classification_officer' ) ;
#270 = FACE_OUTER_BOUND ( 'NONE', #104, .T. ) ;
#271 = PERSON_AND_ORGANIZATION ( #59, #200 ) ;
#272 = CARTESIAN_POINT ( 'NONE',  ( 1.745740669421566678E-14, -6.123233995736766282E-16, 5.000000000000000000 ) ) ;
#273 = FACE_OUTER_BOUND ( 'NONE', #194, .T. ) ;
#274 = CONICAL_SURFACE ( 'NONE', #10, 0.3899999999999995137, 0.5235987755982909331 ) ;
#275 = PERSON_AND_ORGANIZATION_ROLE ( 'design_supplier' ) ;
#276 = DIRECTION ( 'NONE',  ( -3.491481338843133355E-15, 1.224646799147353207E-16, -1.000000000000000000 ) ) ;
#277 = ADVANCED_FACE ( 'NONE', ( #30, #70 ), #29, .T. ) ;
#278 = CARTESIAN_POINT ( 'NONE',  ( -7.958711390529428723E-32, 2.791540175603196885E-33, -2.279465538591842133E-17 ) ) ;
#279 = DIRECTION ( 'NONE',  ( -3.491481338843133355E-15, 1.224646799147353207E-16, -1.000000000000000000 ) ) ;
#280 = CIRCLE ( 'NONE', #51, 0.3722649730810376756 ) ;
#281 =( NAMED_UNIT ( * ) SI_UNIT ( $, .STERADIAN. ) SOLID_ANGLE_UNIT ( ) );
#282 = DIRECTION ( 'NONE',  ( 0.0000000000000000000, 1.000000000000000000, 0.0000000000000000000 ) ) ;
#283 = APPROVAL_PERSON_ORGANIZATION ( #101, #22, #290 ) ;
#284 = ADVANCED_FACE ( 'NONE', ( #5 ), #188, .T. ) ;
#285 = CARTESIAN_POINT ( 'NONE',  ( 1.316288464743861212E-13, 1.499999999999998668, 37.69999999999999574 ) ) ;
#286 = CARTESIAN_POINT ( 'NONE',  ( 1.745740669421566678E-14, 3.224483532722985236E-33, 5.000000000000000000 ) ) ;
#287 = APPROVAL_PERSON_ORGANIZATION ( #250, #254, #247 ) ;
#288 = DATE_TIME_ROLE ( 'classification_date' ) ;
#289 = EDGE_LOOP ( 'NONE', ( #52 ) ) ;
#290 = APPROVAL_ROLE ( '' ) ;
#291 = DIRECTION ( 'NONE',  ( -4.275831445896958607E-31, -1.000000000000000000, -1.224646799147353207E-16 ) ) ;
#292 = AXIS2_PLACEMENT_3D ( 'NONE', #205, #227, #109 ) ;
#293 = APPROVAL_ROLE ( '' ) ;
#294 = ORIENTED_EDGE ( 'NONE', *, *, #154, .F. ) ;
#295 = DATE_AND_TIME ( #57, #116 ) ;
#296 = FACE_OUTER_BOUND ( 'NONE', #71, .T. ) ;
#297 = PERSON_AND_ORGANIZATION_ROLE ( 'creator' ) ;
#298 = FACE_OUTER_BOUND ( 'NONE', #122, .T. ) ;
#299 = FACE_OUTER_BOUND ( 'NONE', #36, .T. ) ;
#300 = DESIGN_CONTEXT ( 'detailed design', #89, 'design' ) ;
#301 = DIRECTION ( 'NONE',  ( -4.478906847412182716E-31, -1.000000000000000000, -1.260700200564541817E-16 ) ) ;
#302 = ADVANCED_BREP_SHAPE_REPRESENTATION ( '200770', ( #105, #107, #120 ), #125 ) ;
#303 = DIRECTION ( 'NONE',  ( 0.0000000000000000000, 1.000000000000000000, 0.0000000000000000000 ) ) ;
ENDSEC;
END-ISO-10303-21;
