ISO-10303-21;
HEADER;
FILE_DESCRIPTION (( 'STEP AP203' ),
    '1' );
FILE_NAME ('200769.step',
    '2021-12-01T10:40:00',
    ( '' ),
    ( '' ),
    'SwSTEP 2.0',
    'SolidWorks 2019',
    '' );
FILE_SCHEMA (( 'CONFIG_CONTROL_DESIGN' ));
ENDSEC;

DATA;
#1 = ADVANCED_FACE ( 'NONE', ( #182 ), #275, .F. ) ;
#2 = DIRECTION ( 'NONE',  ( 0.0000000000000000000, 1.000000000000000000, 0.0000000000000000000 ) ) ;
#3 = EDGE_LOOP ( 'NONE', ( #47 ) ) ;
#4 = DIRECTION ( 'NONE',  ( -3.491481338843133355E-15, 1.224646799147353207E-16, -1.000000000000000000 ) ) ;
#5 = CARTESIAN_POINT ( 'NONE',  ( 5.431058359229120075E-14, -1.904958838421344876E-15, 15.55516937412200562 ) ) ;
#6 = AXIS2_PLACEMENT_3D ( 'NONE', #36, #131, #204 ) ;
#7 = EDGE_CURVE ( 'NONE', #289, #289, #134, .T. ) ;
#8 = APPROVAL_STATUS ( 'not_yet_approved' ) ;
#9 = VERTEX_POINT ( 'NONE', #150 ) ;
#10 = EDGE_CURVE ( 'NONE', #240, #240, #260, .T. ) ;
#11 = LOCAL_TIME ( 11, 40, 0.0000000000000000000, #34 ) ;
#12 = FACE_BOUND ( 'NONE', #302, .T. ) ;
#13 = PERSON ( 'UNSPECIFIED', 'UNSPECIFIED', 'UNSPECIFIED', ('UNSPECIFIED'), ('UNSPECIFIED'), ('UNSPECIFIED') ) ;
#14 = APPROVAL_STATUS ( 'not_yet_approved' ) ;
#15 = DIRECTION ( 'NONE',  ( 1.000000000000000000, 0.0000000000000000000, 0.0000000000000000000 ) ) ;
#16 = CARTESIAN_POINT ( 'NONE',  ( 0.0000000000000000000, 0.0000000000000000000, 0.0000000000000000000 ) ) ;
#17 = EDGE_CURVE ( 'NONE', #287, #287, #103, .T. ) ;
#18 = AXIS2_PLACEMENT_3D ( 'NONE', #165, #62, #59 ) ;
#19 = FACE_BOUND ( 'NONE', #189, .T. ) ;
#20 = EDGE_LOOP ( 'NONE', ( #115 ) ) ;
#21 = EDGE_LOOP ( 'NONE', ( #180 ) ) ;
#22 = ORIENTED_EDGE ( 'NONE', *, *, #10, .T. ) ;
#23 = UNCERTAINTY_MEASURE_WITH_UNIT (LENGTH_MEASURE( 1.000000000000000082E-05 ), #104, 'distance_accuracy_value', 'NONE');
#24 = EDGE_CURVE ( 'NONE', #166, #166, #110, .T. ) ;
#25 = FACE_BOUND ( 'NONE', #21, .T. ) ;
#26 = ORIENTED_EDGE ( 'NONE', *, *, #17, .F. ) ;
#27 = DIRECTION ( 'NONE',  ( 3.491481338843133355E-15, -1.224646799147353207E-16, 1.000000000000000000 ) ) ;
#28 = DIRECTION ( 'NONE',  ( 4.275831445896958607E-31, 1.000000000000000000, 1.224646799147353454E-16 ) ) ;
#29 = DIRECTION ( 'NONE',  ( 0.0000000000000000000, 1.000000000000000000, 0.0000000000000000000 ) ) ;
#30 = AXIS2_PLACEMENT_3D ( 'NONE', #146, #152, #299 ) ;
#31 = VERTEX_POINT ( 'NONE', #124 ) ;
#32 =( GEOMETRIC_REPRESENTATION_CONTEXT ( 3 ) GLOBAL_UNCERTAINTY_ASSIGNED_CONTEXT ( ( #23 ) ) GLOBAL_UNIT_ASSIGNED_CONTEXT ( ( #104, #197, #243 ) ) REPRESENTATION_CONTEXT ( 'NONE', 'WORKASPACE' ) );
#33 = CC_DESIGN_PERSON_AND_ORGANIZATION_ASSIGNMENT ( #221, #159, ( #72 ) ) ;
#34 = COORDINATED_UNIVERSAL_TIME_OFFSET ( 1, 0, .AHEAD. ) ;
#35 = DATE_AND_TIME ( #42, #245 ) ;
#36 = CARTESIAN_POINT ( 'NONE',  ( 0.0000000000000000000, 0.0000000000000000000, 0.0000000000000000000 ) ) ;
#37 = MANIFOLD_SOLID_BREP ( 'Corps-Déplacer/Copier1[1]', #71 ) ;
#38 = DATE_TIME_ROLE ( 'creation_date' ) ;
#39 = DIRECTION ( 'NONE',  ( -3.491481338843133355E-15, 1.224646799147353207E-16, -1.000000000000000000 ) ) ;
#40 = AXIS2_PLACEMENT_3D ( 'NONE', #154, #39, #133 ) ;
#41 = CC_DESIGN_APPROVAL ( #117, ( #294 ) ) ;
#42 = CALENDAR_DATE ( 2021, 1, 12 ) ;
#43 = DIRECTION ( 'NONE',  ( 3.491481338843133355E-15, -1.224646799147353207E-16, 1.000000000000000000 ) ) ;
#44 = EDGE_LOOP ( 'NONE', ( #87 ) ) ;
#45 = EDGE_LOOP ( 'NONE', ( #118 ) ) ;
#46 = CLOSED_SHELL ( 'NONE', ( #171, #173, #51, #198 ) ) ;
#47 = ORIENTED_EDGE ( 'NONE', *, *, #128, .F. ) ;
#48 = CARTESIAN_POINT ( 'NONE',  ( 0.0000000000000000000, 0.0000000000000000000, 0.0000000000000000000 ) ) ;
#49 = FACE_OUTER_BOUND ( 'NONE', #277, .T. ) ;
#50 = CIRCLE ( 'NONE', #227, 1.500000000000003331 ) ;
#51 = ADVANCED_FACE ( 'NONE', ( #272, #73 ), #206, .T. ) ;
#52 = VERTEX_POINT ( 'NONE', #266 ) ;
#53 = ORGANIZATION ( 'UNSPECIFIED', 'UNSPECIFIED', '' ) ;
#54 = PERSON_AND_ORGANIZATION_ROLE ( 'design_owner' ) ;
#55 = CIRCLE ( 'NONE', #244, 0.4053844939755815724 ) ;
#56 = ADVANCED_FACE ( 'NONE', ( #264, #83 ), #65, .T. ) ;
#57 = APPROVAL_DATE_TIME ( #35, #186 ) ;
#58 = CYLINDRICAL_SURFACE ( 'NONE', #290, 0.3749999999999997780 ) ;
#59 = DIRECTION ( 'NONE',  ( 0.0000000000000000000, 1.000000000000000000, 0.0000000000000000000 ) ) ;
#60 = ORIENTED_EDGE ( 'NONE', *, *, #10, .F. ) ;
#61 = PERSON_AND_ORGANIZATION ( #13, #53 ) ;
#62 = DIRECTION ( 'NONE',  ( -3.491481338843133355E-15, 1.224646799147353207E-16, -1.000000000000000000 ) ) ;
#63 = ADVANCED_FACE ( 'NONE', ( #239, #25 ), #222, .T. ) ;
#64 = DIRECTION ( 'NONE',  ( -3.491481338843133355E-15, 1.224646799147353207E-16, -1.000000000000000000 ) ) ;
#65 = CONICAL_SURFACE ( 'NONE', #30, 1.200000000000003286, 0.7853981633974453924 ) ;
#66 = APPROVAL_DATE_TIME ( #188, #161 ) ;
#67 = CC_DESIGN_PERSON_AND_ORGANIZATION_ASSIGNMENT ( #153, #54, ( #149 ) ) ;
#68 = CARTESIAN_POINT ( 'NONE',  ( 1.745740669421566678E-14, -6.123233995736766282E-16, 5.000000000000000000 ) ) ;
#69 = SHAPE_DEFINITION_REPRESENTATION ( #285, #132 ) ;
#70 = ORIENTED_EDGE ( 'NONE', *, *, #286, .F. ) ;
#71 = CLOSED_SHELL ( 'NONE', ( #85, #63, #82, #169, #256, #183, #56, #1 ) ) ;
#72 = PRODUCT_DEFINITION_FORMATION_WITH_SPECIFIED_SOURCE ( 'ANY', '', #149, .NOT_KNOWN. ) ;
#73 = FACE_OUTER_BOUND ( 'NONE', #211, .T. ) ;
#74 = DIRECTION ( 'NONE',  ( -3.491481338843133355E-15, 1.224646799147353207E-16, -1.000000000000000000 ) ) ;
#75 = FACE_OUTER_BOUND ( 'NONE', #185, .T. ) ;
#76 = CARTESIAN_POINT ( 'NONE',  ( 1.745740669421566678E-14, -6.123233995736766282E-16, 5.000000000000000000 ) ) ;
#77 = AXIS2_PLACEMENT_3D ( 'NONE', #257, #137, #92 ) ;
#78 = CARTESIAN_POINT ( 'NONE',  ( 3.491481338843134341E-16, 0.4149999999999994249, 0.1000000000000000194 ) ) ;
#79 = AXIS2_PLACEMENT_3D ( 'NONE', #303, #64, #158 ) ;
#80 = LOCAL_TIME ( 11, 40, 0.0000000000000000000, #236 ) ;
#81 = PERSON_AND_ORGANIZATION ( #13, #53 ) ;
#82 = ADVANCED_FACE ( 'NONE', ( #225, #75 ), #58, .T. ) ;
#83 = FACE_BOUND ( 'NONE', #20, .T. ) ;
#84 = AXIS2_PLACEMENT_3D ( 'NONE', #88, #27, #181 ) ;
#85 = ADVANCED_FACE ( 'NONE', ( #301 ), #121, .F. ) ;
#86 = DIRECTION ( 'NONE',  ( 3.491481338843133355E-15, -1.224646799147353207E-16, 1.000000000000000000 ) ) ;
#87 = ORIENTED_EDGE ( 'NONE', *, *, #7, .T. ) ;
#88 = CARTESIAN_POINT ( 'NONE',  ( 3.491481338843132369E-16, -1.224646799147352807E-17, 0.09999999999999996392 ) ) ;
#89 = EDGE_LOOP ( 'NONE', ( #26 ) ) ;
#90 = EDGE_CURVE ( 'NONE', #265, #265, #55, .T. ) ;
#91 = PERSON_AND_ORGANIZATION ( #13, #53 ) ;
#92 = DIRECTION ( 'NONE',  ( 4.640795046716237661E-31, 1.000000000000000000, 1.306267677693380719E-16 ) ) ;
#93 = LOCAL_TIME ( 11, 40, 0.0000000000000000000, #178 ) ;
#94 = APPLICATION_CONTEXT ( 'configuration controlled 3d designs of mechanical parts and assemblies' ) ;
#95 = ORIENTED_EDGE ( 'NONE', *, *, #286, .T. ) ;
#96 = ORIENTED_EDGE ( 'NONE', *, *, #24, .T. ) ;
#97 = CYLINDRICAL_SURFACE ( 'NONE', #126, 1.500000000000000444 ) ;
#98 = DIRECTION ( 'NONE',  ( 0.0000000000000000000, 1.000000000000000000, 0.0000000000000000000 ) ) ;
#99 = APPROVAL_PERSON_ORGANIZATION ( #61, #186, #176 ) ;
#100 = DIRECTION ( 'NONE',  ( -3.491481338843133355E-15, 1.224646799147353207E-16, -1.000000000000000000 ) ) ;
#101 = DIRECTION ( 'NONE',  ( 0.0000000000000000000, -1.000000000000000000, 0.0000000000000000000 ) ) ;
#102 = CARTESIAN_POINT ( 'NONE',  ( 0.0000000000000000000, 0.3572649730810377178, 0.0000000000000000000 ) ) ;
#103 = CIRCLE ( 'NONE', #253, 1.499999999999997335 ) ;
#104 =( LENGTH_UNIT ( ) NAMED_UNIT ( * ) SI_UNIT ( .MILLI., .METRE. ) );
#105 = EDGE_CURVE ( 'NONE', #170, #170, #151, .T. ) ;
#106 = CONICAL_SURFACE ( 'NONE', #297, 1.499999999999997335, 0.1745329251994260644 ) ;
#107 = DATE_AND_TIME ( #250, #93 ) ;
#108 = APPLICATION_PROTOCOL_DEFINITION ( 'international standard', 'config_control_design', 1994, #94 ) ;
#109 = DIRECTION ( 'NONE',  ( 0.0000000000000000000, 1.000000000000000000, 0.0000000000000000000 ) ) ;
#110 = CIRCLE ( 'NONE', #120, 0.3572649730810377178 ) ;
#111 = CARTESIAN_POINT ( 'NONE',  ( -7.638024032087158010E-32, 2.679058191903557770E-33, -2.187617028655790846E-17 ) ) ;
#112 = ORIENTED_EDGE ( 'NONE', *, *, #7, .F. ) ;
#113 = ORIENTED_EDGE ( 'NONE', *, *, #271, .F. ) ;
#114 = AXIS2_PLACEMENT_3D ( 'NONE', #68, #210, #2 ) ;
#115 = ORIENTED_EDGE ( 'NONE', *, *, #105, .T. ) ;
#116 = DIRECTION ( 'NONE',  ( 0.0000000000000000000, 1.000000000000000000, 0.0000000000000000000 ) ) ;
#117 = APPROVAL ( #14, 'UNSPECIFIED' ) ;
#118 = ORIENTED_EDGE ( 'NONE', *, *, #90, .T. ) ;
#119 = DIRECTION ( 'NONE',  ( -3.491481338843133355E-15, 1.224646799147353207E-16, -1.000000000000000000 ) ) ;
#120 = AXIS2_PLACEMENT_3D ( 'NONE', #191, #74, #283 ) ;
#121 = PLANE ( 'NONE',  #192 ) ;
#122 = CC_DESIGN_PERSON_AND_ORGANIZATION_ASSIGNMENT ( #123, #241, ( #72 ) ) ;
#123 = PERSON_AND_ORGANIZATION ( #13, #53 ) ;
#124 = CARTESIAN_POINT ( 'NONE',  ( 1.316288464743861212E-13, 1.499999999999998668, 37.69999999999999574 ) ) ;
#125 = CARTESIAN_POINT ( 'NONE',  ( 1.745740669421566678E-14, 0.4149999999999994249, 5.000000000000000000 ) ) ;
#126 = AXIS2_PLACEMENT_3D ( 'NONE', #48, #100, #194 ) ;
#127 = DIRECTION ( 'NONE',  ( -3.491481338843133355E-15, 1.224646799147353207E-16, -1.000000000000000000 ) ) ;
#128 = EDGE_CURVE ( 'NONE', #31, #31, #50, .T. ) ;
#129 = SECURITY_CLASSIFICATION ( '', '', #232 ) ;
#130 = DATE_AND_TIME ( #202, #11 ) ;
#131 = DIRECTION ( 'NONE',  ( -3.491481338843133355E-15, 1.224646799147353207E-16, -1.000000000000000000 ) ) ;
#132 = ADVANCED_BREP_SHAPE_REPRESENTATION ( '200769', ( #37, #139, #270 ), #32 ) ;
#133 = DIRECTION ( 'NONE',  ( 4.275831445896958607E-31, 1.000000000000000000, 1.224646799147353207E-16 ) ) ;
#134 = CIRCLE ( 'NONE', #77, 0.4149999999999994249 ) ;
#135 = DIRECTION ( 'NONE',  ( -3.491481338843133355E-15, 1.224646799147353207E-16, -1.000000000000000000 ) ) ;
#136 = DIRECTION ( 'NONE',  ( -4.275831445896958607E-31, -1.000000000000000000, -1.224646799147353207E-16 ) ) ;
#137 = DIRECTION ( 'NONE',  ( -3.491481338843133355E-15, 1.224646799147353207E-16, -1.000000000000000000 ) ) ;
#138 = ORIENTED_EDGE ( 'NONE', *, *, #24, .F. ) ;
#139 = MANIFOLD_SOLID_BREP ( 'Corps-Déplacer/Copier1[2]', #46 ) ;
#140 = LOCAL_TIME ( 11, 40, 0.0000000000000000000, #288 ) ;
#141 = CC_DESIGN_PERSON_AND_ORGANIZATION_ASSIGNMENT ( #91, #208, ( #129 ) ) ;
#142 = CALENDAR_DATE ( 2021, 1, 12 ) ;
#143 = CC_DESIGN_DATE_AND_TIME_ASSIGNMENT ( #216, #261, ( #129 ) ) ;
#144 = EDGE_LOOP ( 'NONE', ( #22 ) ) ;
#145 = CARTESIAN_POINT ( 'NONE',  ( 1.769930361711786712E-14, -6.208080014834759960E-16, 5.069282032302756313 ) ) ;
#146 = CARTESIAN_POINT ( 'NONE',  ( 1.326762908760390423E-13, -4.653657836759941941E-15, 38.00000000000000000 ) ) ;
#147 = AXIS2_PLACEMENT_3D ( 'NONE', #145, #4, #116 ) ;
#148 = CARTESIAN_POINT ( 'NONE',  ( 5.431058359229120075E-14, -1.904958838421344876E-15, 15.55516937412200562 ) ) ;
#149 = PRODUCT ( '200769', '200769', '', ( #174 ) ) ;
#150 = CARTESIAN_POINT ( 'NONE',  ( 1.745740669421566678E-14, 0.4149999999999994249, 5.000000000000000000 ) ) ;
#151 = CIRCLE ( 'NONE', #18, 1.200000000000003286 ) ;
#152 = DIRECTION ( 'NONE',  ( -3.491481338843133355E-15, 1.224646799147353207E-16, -1.000000000000000000 ) ) ;
#153 = PERSON_AND_ORGANIZATION ( #13, #53 ) ;
#154 = CARTESIAN_POINT ( 'NONE',  ( 3.142333204958820020E-14, -1.301042606982605321E-15, 9.000000000000000000 ) ) ;
#155 = ORIENTED_EDGE ( 'NONE', *, *, #219, .F. ) ;
#156 = COORDINATED_UNIVERSAL_TIME_OFFSET ( 1, 0, .AHEAD. ) ;
#157 = DIRECTION ( 'NONE',  ( -4.275831445896958607E-31, -1.000000000000000000, -1.224646799147353207E-16 ) ) ;
#158 = DIRECTION ( 'NONE',  ( 4.275831445896958607E-31, 1.000000000000000000, 1.224646799147353207E-16 ) ) ;
#159 = PERSON_AND_ORGANIZATION_ROLE ( 'creator' ) ;
#160 = EDGE_LOOP ( 'NONE', ( #233 ) ) ;
#161 = APPROVAL ( #8, 'UNSPECIFIED' ) ;
#162 = CIRCLE ( 'NONE', #184, 0.3749999999999995004 ) ;
#163 = CARTESIAN_POINT ( 'NONE',  ( 3.263591079328455776E-14, -1.144713656224131427E-15, 9.347296355333845952 ) ) ;
#164 = DIRECTION ( 'NONE',  ( -3.491481338843133355E-15, 1.224646799147353207E-16, -1.000000000000000000 ) ) ;
#165 = CARTESIAN_POINT ( 'NONE',  ( 1.326762908760390423E-13, -4.653657836759941941E-15, 38.00000000000000000 ) ) ;
#166 = VERTEX_POINT ( 'NONE', #102 ) ;
#167 = APPROVAL_ROLE ( '' ) ;
#168 = VERTEX_POINT ( 'NONE', #267 ) ;
#169 = ADVANCED_FACE ( 'NONE', ( #49, #179 ), #172, .F. ) ;
#170 = VERTEX_POINT ( 'NONE', #218 ) ;
#171 = ADVANCED_FACE ( 'NONE', ( #190 ), #177, .F. ) ;
#172 = TOROIDAL_SURFACE ( 'NONE', #40, 2.375000000000000444, 2.000000000000000000 ) ;
#173 = ADVANCED_FACE ( 'NONE', ( #19, #281 ), #282, .T. ) ;
#174 = MECHANICAL_CONTEXT ( 'NONE', #279, 'mechanical' ) ;
#175 = CC_DESIGN_APPROVAL ( #161, ( #129 ) ) ;
#176 = APPROVAL_ROLE ( '' ) ;
#177 = PLANE ( 'NONE',  #234 ) ;
#178 = COORDINATED_UNIVERSAL_TIME_OFFSET ( 1, 0, .AHEAD. ) ;
#179 = FACE_OUTER_BOUND ( 'NONE', #45, .T. ) ;
#180 = ORIENTED_EDGE ( 'NONE', *, *, #271, .T. ) ;
#181 = DIRECTION ( 'NONE',  ( -4.640795046716237661E-31, -1.000000000000000000, -1.306267677693380719E-16 ) ) ;
#182 = FACE_OUTER_BOUND ( 'NONE', #259, .T. ) ;
#183 = ADVANCED_FACE ( 'NONE', ( #263, #212 ), #97, .T. ) ;
#184 = AXIS2_PLACEMENT_3D ( 'NONE', #196, #127, #29 ) ;
#185 = EDGE_LOOP ( 'NONE', ( #252 ) ) ;
#186 = APPROVAL ( #295, 'UNSPECIFIED' ) ;
#187 = EDGE_LOOP ( 'NONE', ( #60 ) ) ;
#188 = DATE_AND_TIME ( #278, #80 ) ;
#189 = EDGE_LOOP ( 'NONE', ( #138 ) ) ;
#190 = FACE_OUTER_BOUND ( 'NONE', #273, .T. ) ;
#191 = CARTESIAN_POINT ( 'NONE',  ( -1.527604806417431602E-31, 5.358116383807115539E-33, -4.375234057311581692E-17 ) ) ;
#192 = AXIS2_PLACEMENT_3D ( 'NONE', #249, #86, #157 ) ;
#193 = AXIS2_PLACEMENT_3D ( 'NONE', #76, #217, #292 ) ;
#194 = DIRECTION ( 'NONE',  ( 4.275831445896958607E-31, 1.000000000000000000, 1.224646799147353207E-16 ) ) ;
#195 = DIRECTION ( 'NONE',  ( 0.0000000000000000000, 1.000000000000000000, 0.0000000000000000000 ) ) ;
#196 = CARTESIAN_POINT ( 'NONE',  ( 1.769930361711786712E-14, -6.208080014834759960E-16, 5.069282032302756313 ) ) ;
#197 =( NAMED_UNIT ( * ) PLANE_ANGLE_UNIT ( ) SI_UNIT ( $, .RADIAN. ) );
#198 = ADVANCED_FACE ( 'NONE', ( #274 ), #255, .T. ) ;
#199 = CARTESIAN_POINT ( 'NONE',  ( 5.431058359229120075E-14, 1.499999999999995559, 15.55516937412200562 ) ) ;
#200 = CARTESIAN_POINT ( 'NONE',  ( 3.263591079328455776E-14, 0.4053844939755804622, 9.347296355333845952 ) ) ;
#201 = CARTESIAN_POINT ( 'NONE',  ( 3.142333204958820020E-14, -1.102182119232617714E-15, 9.000000000000000000 ) ) ;
#202 = CALENDAR_DATE ( 2021, 1, 12 ) ;
#203 = APPROVAL_PERSON_ORGANIZATION ( #205, #117, #300 ) ;
#204 = DIRECTION ( 'NONE',  ( 4.275831445896958607E-31, 1.000000000000000000, 1.224646799147353207E-16 ) ) ;
#205 = PERSON_AND_ORGANIZATION ( #13, #53 ) ;
#206 = CYLINDRICAL_SURFACE ( 'NONE', #6, 0.4149999999999997025 ) ;
#207 = ORIENTED_EDGE ( 'NONE', *, *, #90, .F. ) ;
#208 = PERSON_AND_ORGANIZATION_ROLE ( 'classification_officer' ) ;
#209 = EDGE_LOOP ( 'NONE', ( #112 ) ) ;
#210 = DIRECTION ( 'NONE',  ( -3.491481338843133355E-15, 1.224646799147353207E-16, -1.000000000000000000 ) ) ;
#211 = EDGE_LOOP ( 'NONE', ( #95 ) ) ;
#212 = FACE_OUTER_BOUND ( 'NONE', #160, .T. ) ;
#213 = EDGE_LOOP ( 'NONE', ( #113 ) ) ;
#214 = CARTESIAN_POINT ( 'NONE',  ( 1.316288464743861212E-13, -4.616918432785521081E-15, 37.69999999999999574 ) ) ;
#215 = APPROVAL_PERSON_ORGANIZATION ( #276, #161, #167 ) ;
#216 = DATE_AND_TIME ( #142, #140 ) ;
#217 = DIRECTION ( 'NONE',  ( -3.491481338843133355E-15, 1.224646799147353207E-16, -1.000000000000000000 ) ) ;
#218 = CARTESIAN_POINT ( 'NONE',  ( 1.326762908760390423E-13, 1.199999999999998845, 38.00000000000000000 ) ) ;
#219 = EDGE_CURVE ( 'NONE', #168, #168, #246, .T. ) ;
#220 = FACE_OUTER_BOUND ( 'NONE', #237, .T. ) ;
#221 = PERSON_AND_ORGANIZATION ( #13, #53 ) ;
#222 = CONICAL_SURFACE ( 'NONE', #147, 0.3749999999999995004, 0.5235987755982963732 ) ;
#223 = CIRCLE ( 'NONE', #193, 0.4149999999999999800 ) ;
#224 = CARTESIAN_POINT ( 'NONE',  ( 0.0000000000000000000, 0.0000000000000000000, 0.0000000000000000000 ) ) ;
#225 = FACE_OUTER_BOUND ( 'NONE', #213, .T. ) ;
#226 = CC_DESIGN_PERSON_AND_ORGANIZATION_ASSIGNMENT ( #81, #247, ( #294 ) ) ;
#227 = AXIS2_PLACEMENT_3D ( 'NONE', #214, #296, #109 ) ;
#228 = AXIS2_PLACEMENT_3D ( 'NONE', #201, #135, #195 ) ;
#229 = DIRECTION ( 'NONE',  ( -4.275831445896958607E-31, -1.000000000000000000, -1.224646799147353207E-16 ) ) ;
#230 = DIRECTION ( 'NONE',  ( 3.491481338843133355E-15, -1.224646799147353207E-16, 1.000000000000000000 ) ) ;
#231 = ORIENTED_EDGE ( 'NONE', *, *, #17, .T. ) ;
#232 = SECURITY_CLASSIFICATION_LEVEL ( 'unclassified' ) ;
#233 = ORIENTED_EDGE ( 'NONE', *, *, #128, .T. ) ;
#234 = AXIS2_PLACEMENT_3D ( 'NONE', #111, #230, #229 ) ;
#235 = AXIS2_PLACEMENT_3D ( 'NONE', #284, #43, #136 ) ;
#236 = COORDINATED_UNIVERSAL_TIME_OFFSET ( 1, 0, .AHEAD. ) ;
#237 = EDGE_LOOP ( 'NONE', ( #231 ) ) ;
#238 = DIRECTION ( 'NONE',  ( 0.0000000000000000000, 1.000000000000000000, 0.0000000000000000000 ) ) ;
#239 = FACE_OUTER_BOUND ( 'NONE', #187, .T. ) ;
#240 = VERTEX_POINT ( 'NONE', #125 ) ;
#241 = PERSON_AND_ORGANIZATION_ROLE ( 'design_supplier' ) ;
#242 = DIRECTION ( 'NONE',  ( 3.491481338843133355E-15, -1.224646799147353207E-16, 1.000000000000000000 ) ) ;
#243 =( NAMED_UNIT ( * ) SI_UNIT ( $, .STERADIAN. ) SOLID_ANGLE_UNIT ( ) );
#244 = AXIS2_PLACEMENT_3D ( 'NONE', #163, #251, #238 ) ;
#245 = LOCAL_TIME ( 11, 40, 0.0000000000000000000, #156 ) ;
#246 = CIRCLE ( 'NONE', #228, 0.3750000000000001110 ) ;
#247 = PERSON_AND_ORGANIZATION_ROLE ( 'creator' ) ;
#248 = PRODUCT_RELATED_PRODUCT_CATEGORY ( 'detail', '', ( #149 ) ) ;
#249 = CARTESIAN_POINT ( 'NONE',  ( 1.745740669421566678E-14, 3.112001549023345778E-33, 5.000000000000000000 ) ) ;
#250 = CALENDAR_DATE ( 2021, 1, 12 ) ;
#251 = DIRECTION ( 'NONE',  ( -3.491481338843133355E-15, 1.224646799147353207E-16, -1.000000000000000000 ) ) ;
#252 = ORIENTED_EDGE ( 'NONE', *, *, #219, .T. ) ;
#253 = AXIS2_PLACEMENT_3D ( 'NONE', #5, #164, #98 ) ;
#254 = CC_DESIGN_SECURITY_CLASSIFICATION ( #129, ( #72 ) ) ;
#255 = PLANE ( 'NONE',  #235 ) ;
#256 = ADVANCED_FACE ( 'NONE', ( #12, #220 ), #106, .T. ) ;
#257 = CARTESIAN_POINT ( 'NONE',  ( 3.491481338843132369E-16, -1.224646799147352807E-17, 0.09999999999999996392 ) ) ;
#258 = DESIGN_CONTEXT ( 'detailed design', #94, 'design' ) ;
#259 = EDGE_LOOP ( 'NONE', ( #280 ) ) ;
#260 = CIRCLE ( 'NONE', #114, 0.4149999999999999800 ) ;
#261 = DATE_TIME_ROLE ( 'classification_date' ) ;
#262 = EDGE_LOOP ( 'NONE', ( #70 ) ) ;
#263 = FACE_OUTER_BOUND ( 'NONE', #89, .T. ) ;
#264 = FACE_OUTER_BOUND ( 'NONE', #3, .T. ) ;
#265 = VERTEX_POINT ( 'NONE', #200 ) ;
#266 = CARTESIAN_POINT ( 'NONE',  ( 1.769930361711786712E-14, 0.3749999999999989453, 5.069282032302756313 ) ) ;
#267 = CARTESIAN_POINT ( 'NONE',  ( 3.142333204958820020E-14, 0.3749999999999990563, 9.000000000000000000 ) ) ;
#268 = APPLICATION_PROTOCOL_DEFINITION ( 'international standard', 'config_control_design', 1994, #279 ) ;
#269 = DIRECTION ( 'NONE',  ( 0.0000000000000000000, 0.0000000000000000000, 1.000000000000000000 ) ) ;
#270 = AXIS2_PLACEMENT_3D ( 'NONE', #224, #269, #15 ) ;
#271 = EDGE_CURVE ( 'NONE', #52, #52, #162, .T. ) ;
#272 = FACE_OUTER_BOUND ( 'NONE', #209, .T. ) ;
#273 = EDGE_LOOP ( 'NONE', ( #96 ) ) ;
#274 = FACE_OUTER_BOUND ( 'NONE', #262, .T. ) ;
#275 = PLANE ( 'NONE',  #79 ) ;
#276 = PERSON_AND_ORGANIZATION ( #13, #53 ) ;
#277 = EDGE_LOOP ( 'NONE', ( #155 ) ) ;
#278 = CALENDAR_DATE ( 2021, 1, 12 ) ;
#279 = APPLICATION_CONTEXT ( 'configuration controlled 3d designs of mechanical parts and assemblies' ) ;
#280 = ORIENTED_EDGE ( 'NONE', *, *, #105, .F. ) ;
#281 = FACE_OUTER_BOUND ( 'NONE', #44, .T. ) ;
#282 = CONICAL_SURFACE ( 'NONE', #84, 0.4149999999999994249, 0.5235987755982921543 ) ;
#283 = DIRECTION ( 'NONE',  ( 4.275831445896958607E-31, 1.000000000000000000, 1.224646799147353207E-16 ) ) ;
#284 = CARTESIAN_POINT ( 'NONE',  ( 1.745740669421566678E-14, 3.112001549023345778E-33, 5.000000000000000000 ) ) ;
#285 = PRODUCT_DEFINITION_SHAPE ( 'NONE', 'NONE',  #294 ) ;
#286 = EDGE_CURVE ( 'NONE', #9, #9, #223, .T. ) ;
#287 = VERTEX_POINT ( 'NONE', #199 ) ;
#288 = COORDINATED_UNIVERSAL_TIME_OFFSET ( 1, 0, .AHEAD. ) ;
#289 = VERTEX_POINT ( 'NONE', #78 ) ;
#290 = AXIS2_PLACEMENT_3D ( 'NONE', #16, #119, #28 ) ;
#291 = CC_DESIGN_APPROVAL ( #186, ( #72 ) ) ;
#292 = DIRECTION ( 'NONE',  ( 0.0000000000000000000, 1.000000000000000000, 0.0000000000000000000 ) ) ;
#293 = CC_DESIGN_DATE_AND_TIME_ASSIGNMENT ( #130, #38, ( #294 ) ) ;
#294 = PRODUCT_DEFINITION ( 'UNKNOWN', '', #72, #258 ) ;
#295 = APPROVAL_STATUS ( 'not_yet_approved' ) ;
#296 = DIRECTION ( 'NONE',  ( -3.491481338843133355E-15, 1.224646799147353207E-16, -1.000000000000000000 ) ) ;
#297 = AXIS2_PLACEMENT_3D ( 'NONE', #148, #242, #101 ) ;
#298 = APPROVAL_DATE_TIME ( #107, #117 ) ;
#299 = DIRECTION ( 'NONE',  ( 0.0000000000000000000, 1.000000000000000000, 0.0000000000000000000 ) ) ;
#300 = APPROVAL_ROLE ( '' ) ;
#301 = FACE_OUTER_BOUND ( 'NONE', #144, .T. ) ;
#302 = EDGE_LOOP ( 'NONE', ( #207 ) ) ;
#303 = CARTESIAN_POINT ( 'NONE',  ( 1.326762908760390423E-13, 8.998558695971103225E-33, 38.00000000000000000 ) ) ;
ENDSEC;
END-ISO-10303-21;
