ISO-10303-21;
HEADER;
FILE_DESCRIPTION (( 'STEP AP203' ),
    '1' );
FILE_NAME ('200768.step',
    '2021-12-01T10:40:00',
    ( '' ),
    ( '' ),
    'SwSTEP 2.0',
    'SolidWorks 2019',
    '' );
FILE_SCHEMA (( 'CONFIG_CONTROL_DESIGN' ));
ENDSEC;

DATA;
#1 = CARTESIAN_POINT ( 'NONE',  ( 1.326762908760390423E-13, 1.199999999999998845, 38.00000000000000000 ) ) ;
#2 = CC_DESIGN_DATE_AND_TIME_ASSIGNMENT ( #71, #287, ( #81 ) ) ;
#3 = SHAPE_DEFINITION_REPRESENTATION ( #97, #222 ) ;
#4 = DIRECTION ( 'NONE',  ( 0.0000000000000000000, 0.0000000000000000000, 1.000000000000000000 ) ) ;
#5 = AXIS2_PLACEMENT_3D ( 'NONE', #92, #275, #40 ) ;
#6 = CC_DESIGN_APPROVAL ( #14, ( #131 ) ) ;
#7 = EDGE_LOOP ( 'NONE', ( #172 ) ) ;
#8 = CYLINDRICAL_SURFACE ( 'NONE', #37, 1.500000000000000444 ) ;
#9 = FACE_OUTER_BOUND ( 'NONE', #7, .T. ) ;
#10 = AXIS2_PLACEMENT_3D ( 'NONE', #201, #273, #156 ) ;
#11 = ORIENTED_EDGE ( 'NONE', *, *, #178, .T. ) ;
#12 = EDGE_CURVE ( 'NONE', #216, #216, #54, .T. ) ;
#13 = EDGE_LOOP ( 'NONE', ( #220 ) ) ;
#14 = APPROVAL ( #186, 'UNSPECIFIED' ) ;
#15 = PLANE ( 'NONE',  #10 ) ;
#16 = APPROVAL_PERSON_ORGANIZATION ( #264, #296, #95 ) ;
#17 = CARTESIAN_POINT ( 'NONE',  ( 1.326762908760390423E-13, 8.998558695971103225E-33, 38.00000000000000000 ) ) ;
#18 = CC_DESIGN_PERSON_AND_ORGANIZATION_ASSIGNMENT ( #139, #82, ( #131 ) ) ;
#19 = CARTESIAN_POINT ( 'NONE',  ( 3.491481338843132369E-16, -1.224646799147352807E-17, 0.09999999999999996392 ) ) ;
#20 = AXIS2_PLACEMENT_3D ( 'NONE', #64, #250, #39 ) ;
#21 = CARTESIAN_POINT ( 'NONE',  ( 1.745740669421566678E-14, 0.4199999999999993738, 5.000000000000000000 ) ) ;
#22 =( NAMED_UNIT ( * ) SI_UNIT ( $, .STERADIAN. ) SOLID_ANGLE_UNIT ( ) );
#23 = EDGE_LOOP ( 'NONE', ( #243 ) ) ;
#24 = ORGANIZATION ( 'UNSPECIFIED', 'UNSPECIFIED', '' ) ;
#25 = ADVANCED_FACE ( 'NONE', ( #151, #9 ), #8, .T. ) ;
#26 = CARTESIAN_POINT ( 'NONE',  ( 1.769930361711787028E-14, -6.208080014834760946E-16, 5.069282032302757202 ) ) ;
#27 = APPLICATION_PROTOCOL_DEFINITION ( 'international standard', 'config_control_design', 1994, #229 ) ;
#28 = VERTEX_POINT ( 'NONE', #218 ) ;
#29 = ORIENTED_EDGE ( 'NONE', *, *, #267, .F. ) ;
#30 = LOCAL_TIME ( 11, 40, 0.0000000000000000000, #254 ) ;
#31 = ORIENTED_EDGE ( 'NONE', *, *, #191, .T. ) ;
#32 = EDGE_LOOP ( 'NONE', ( #56 ) ) ;
#33 = EDGE_LOOP ( 'NONE', ( #223 ) ) ;
#34 = AXIS2_PLACEMENT_3D ( 'NONE', #211, #128, #74 ) ;
#35 = ORIENTED_EDGE ( 'NONE', *, *, #174, .T. ) ;
#36 = FACE_OUTER_BOUND ( 'NONE', #87, .T. ) ;
#37 = AXIS2_PLACEMENT_3D ( 'NONE', #135, #247, #227 ) ;
#38 = AXIS2_PLACEMENT_3D ( 'NONE', #276, #301, #90 ) ;
#39 = DIRECTION ( 'NONE',  ( 0.0000000000000000000, -1.000000000000000000, 0.0000000000000000000 ) ) ;
#40 = DIRECTION ( 'NONE',  ( 0.0000000000000000000, 1.000000000000000000, 0.0000000000000000000 ) ) ;
#41 = DATE_AND_TIME ( #50, #290 ) ;
#42 = DIRECTION ( 'NONE',  ( -3.491481338843133355E-15, 1.224646799147353207E-16, -1.000000000000000000 ) ) ;
#43 = AXIS2_PLACEMENT_3D ( 'NONE', #180, #115, #177 ) ;
#44 = CC_DESIGN_SECURITY_CLASSIFICATION ( #81, ( #131 ) ) ;
#45 = COORDINATED_UNIVERSAL_TIME_OFFSET ( 1, 0, .AHEAD. ) ;
#46 = VERTEX_POINT ( 'NONE', #123 ) ;
#47 = DIRECTION ( 'NONE',  ( 3.491481338843133355E-15, -1.224646799147353207E-16, 1.000000000000000000 ) ) ;
#48 = CONICAL_SURFACE ( 'NONE', #225, 1.200000000000003286, 0.7853981633974453924 ) ;
#49 = VERTEX_POINT ( 'NONE', #1 ) ;
#50 = CALENDAR_DATE ( 2021, 1, 12 ) ;
#51 = EDGE_LOOP ( 'NONE', ( #104 ) ) ;
#52 = PERSON_AND_ORGANIZATION_ROLE ( 'creator' ) ;
#53 = EDGE_LOOP ( 'NONE', ( #35 ) ) ;
#54 = CIRCLE ( 'NONE', #65, 0.3622649730810376112 ) ;
#55 = APPROVAL_PERSON_ORGANIZATION ( #285, #213, #126 ) ;
#56 = ORIENTED_EDGE ( 'NONE', *, *, #117, .T. ) ;
#57 = EDGE_LOOP ( 'NONE', ( #60 ) ) ;
#58 = CC_DESIGN_PERSON_AND_ORGANIZATION_ASSIGNMENT ( #120, #103, ( #68 ) ) ;
#59 = CC_DESIGN_PERSON_AND_ORGANIZATION_ASSIGNMENT ( #210, #164, ( #81 ) ) ;
#60 = ORIENTED_EDGE ( 'NONE', *, *, #189, .F. ) ;
#61 = AXIS2_PLACEMENT_3D ( 'NONE', #166, #162, #168 ) ;
#62 = FACE_OUTER_BOUND ( 'NONE', #134, .T. ) ;
#63 = PLANE ( 'NONE',  #141 ) ;
#64 = CARTESIAN_POINT ( 'NONE',  ( 5.421157771908862273E-14, -1.901486179857616481E-15, 15.52681296502391639 ) ) ;
#65 = AXIS2_PLACEMENT_3D ( 'NONE', #221, #106, #200 ) ;
#66 = LOCAL_TIME ( 11, 40, 0.0000000000000000000, #101 ) ;
#67 = APPROVAL_STATUS ( 'not_yet_approved' ) ;
#68 = PRODUCT ( '200768', '200768', '', ( #286 ) ) ;
#69 = CC_DESIGN_PERSON_AND_ORGANIZATION_ASSIGNMENT ( #219, #52, ( #75 ) ) ;
#70 = ADVANCED_FACE ( 'NONE', ( #288, #84 ), #194, .T. ) ;
#71 = DATE_AND_TIME ( #150, #202 ) ;
#72 = VERTEX_POINT ( 'NONE', #255 ) ;
#73 = PERSON_AND_ORGANIZATION_ROLE ( 'design_supplier' ) ;
#74 = DIRECTION ( 'NONE',  ( 4.275831445896958607E-31, 1.000000000000000000, 1.224646799147353207E-16 ) ) ;
#75 = PRODUCT_DEFINITION ( 'UNKNOWN', '', #131, #270 ) ;
#76 = DIRECTION ( 'NONE',  ( 0.0000000000000000000, 1.000000000000000000, 0.0000000000000000000 ) ) ;
#77 = ORIENTED_EDGE ( 'NONE', *, *, #191, .F. ) ;
#78 = VERTEX_POINT ( 'NONE', #96 ) ;
#79 = FACE_OUTER_BOUND ( 'NONE', #130, .T. ) ;
#80 = CIRCLE ( 'NONE', #256, 1.200000000000003286 ) ;
#81 = SECURITY_CLASSIFICATION ( '', '', #217 ) ;
#82 = PERSON_AND_ORGANIZATION_ROLE ( 'creator' ) ;
#83 = CARTESIAN_POINT ( 'NONE',  ( 0.0000000000000000000, 0.0000000000000000000, 0.0000000000000000000 ) ) ;
#84 = FACE_OUTER_BOUND ( 'NONE', #53, .T. ) ;
#85 = ORIENTED_EDGE ( 'NONE', *, *, #189, .T. ) ;
#86 = DIRECTION ( 'NONE',  ( 0.0000000000000000000, 1.000000000000000000, 0.0000000000000000000 ) ) ;
#87 = EDGE_LOOP ( 'NONE', ( #265 ) ) ;
#88 = ORIENTED_EDGE ( 'NONE', *, *, #174, .F. ) ;
#89 = AXIS2_PLACEMENT_3D ( 'NONE', #233, #121, #272 ) ;
#90 = DIRECTION ( 'NONE',  ( 0.0000000000000000000, 1.000000000000000000, 0.0000000000000000000 ) ) ;
#91 = FACE_OUTER_BOUND ( 'NONE', #269, .T. ) ;
#92 = CARTESIAN_POINT ( 'NONE',  ( 1.769930361711787028E-14, -6.208080014834760946E-16, 5.069282032302757202 ) ) ;
#93 = APPROVAL_DATE_TIME ( #193, #14 ) ;
#94 = PLANE ( 'NONE',  #181 ) ;
#95 = APPROVAL_ROLE ( '' ) ;
#96 = CARTESIAN_POINT ( 'NONE',  ( 5.421157771908862273E-14, 1.499999999999995559, 15.52681296502391639 ) ) ;
#97 = PRODUCT_DEFINITION_SHAPE ( 'NONE', 'NONE',  #75 ) ;
#98 = DATE_TIME_ROLE ( 'creation_date' ) ;
#99 = FACE_OUTER_BOUND ( 'NONE', #268, .T. ) ;
#100 = MANIFOLD_SOLID_BREP ( 'Corps-Déplacer/Copier1[1]', #163 ) ;
#101 = COORDINATED_UNIVERSAL_TIME_OFFSET ( 1, 0, .AHEAD. ) ;
#102 = AXIS2_PLACEMENT_3D ( 'NONE', #83, #4, #192 ) ;
#103 = PERSON_AND_ORGANIZATION_ROLE ( 'design_owner' ) ;
#104 = ORIENTED_EDGE ( 'NONE', *, *, #178, .F. ) ;
#105 = MANIFOLD_SOLID_BREP ( 'Corps-Déplacer/Copier1[2]', #195 ) ;
#106 = DIRECTION ( 'NONE',  ( -3.491481338843133355E-15, 1.224646799147353207E-16, -1.000000000000000000 ) ) ;
#107 = ADVANCED_FACE ( 'NONE', ( #170, #171 ), #48, .T. ) ;
#108 = CARTESIAN_POINT ( 'NONE',  ( 0.0000000000000000000, 0.0000000000000000000, 0.0000000000000000000 ) ) ;
#109 = AXIS2_PLACEMENT_3D ( 'NONE', #160, #42, #203 ) ;
#110 = CIRCLE ( 'NONE', #283, 0.4103844939755811883 ) ;
#111 = LOCAL_TIME ( 11, 40, 0.0000000000000000000, #232 ) ;
#112 = CARTESIAN_POINT ( 'NONE',  ( 1.326762908760390423E-13, -4.653657836759941941E-15, 38.00000000000000000 ) ) ;
#113 = UNCERTAINTY_MEASURE_WITH_UNIT (LENGTH_MEASURE( 1.000000000000000082E-05 ), #215, 'distance_accuracy_value', 'NONE');
#114 = ORIENTED_EDGE ( 'NONE', *, *, #12, .F. ) ;
#115 = DIRECTION ( 'NONE',  ( 3.491481338843133355E-15, -1.224646799147353207E-16, 1.000000000000000000 ) ) ;
#116 = DIRECTION ( 'NONE',  ( -3.491481338843133355E-15, 1.224646799147353207E-16, -1.000000000000000000 ) ) ;
#117 = EDGE_CURVE ( 'NONE', #49, #49, #80, .T. ) ;
#118 = ADVANCED_FACE ( 'NONE', ( #153 ), #63, .F. ) ;
#119 = DIRECTION ( 'NONE',  ( 4.585547486636282430E-31, 1.000000000000000000, 1.290716872006554752E-16 ) ) ;
#120 = PERSON_AND_ORGANIZATION ( #274, #24 ) ;
#121 = DIRECTION ( 'NONE',  ( -3.491481338843133355E-15, 1.224646799147353207E-16, -1.000000000000000000 ) ) ;
#122 = DATE_AND_TIME ( #206, #66 ) ;
#123 = CARTESIAN_POINT ( 'NONE',  ( 3.491481338843134341E-16, 0.4199999999999993738, 0.1000000000000000194 ) ) ;
#124 = CARTESIAN_POINT ( 'NONE',  ( 9.463679131915805687E-32, 0.3622649730810376112, 2.710505431213761085E-17 ) ) ;
#125 = DIRECTION ( 'NONE',  ( -3.491481338843133355E-15, 1.224646799147353207E-16, -1.000000000000000000 ) ) ;
#126 = APPROVAL_ROLE ( '' ) ;
#127 = ADVANCED_FACE ( 'NONE', ( #300, #91 ), #266, .F. ) ;
#128 = DIRECTION ( 'NONE',  ( -3.491481338843133355E-15, 1.224646799147353207E-16, -1.000000000000000000 ) ) ;
#129 = CALENDAR_DATE ( 2021, 1, 12 ) ;
#130 = EDGE_LOOP ( 'NONE', ( #11 ) ) ;
#131 = PRODUCT_DEFINITION_FORMATION_WITH_SPECIFIED_SOURCE ( 'ANY', '', #68, .NOT_KNOWN. ) ;
#132 = EDGE_LOOP ( 'NONE', ( #248 ) ) ;
#133 = ADVANCED_FACE ( 'NONE', ( #252 ), #94, .T. ) ;
#134 = EDGE_LOOP ( 'NONE', ( #31 ) ) ;
#135 = CARTESIAN_POINT ( 'NONE',  ( 0.0000000000000000000, 0.0000000000000000000, 0.0000000000000000000 ) ) ;
#136 = EDGE_LOOP ( 'NONE', ( #228 ) ) ;
#137 = APPLICATION_CONTEXT ( 'configuration controlled 3d designs of mechanical parts and assemblies' ) ;
#138 = DIRECTION ( 'NONE',  ( 0.0000000000000000000, 1.000000000000000000, 0.0000000000000000000 ) ) ;
#139 = PERSON_AND_ORGANIZATION ( #274, #24 ) ;
#140 = DIRECTION ( 'NONE',  ( -3.491481338843133355E-15, 1.224646799147353207E-16, -1.000000000000000000 ) ) ;
#141 = AXIS2_PLACEMENT_3D ( 'NONE', #17, #116, #184 ) ;
#142 = PERSON_AND_ORGANIZATION ( #274, #24 ) ;
#143 = CIRCLE ( 'NONE', #38, 0.4199999999999999845 ) ;
#144 =( NAMED_UNIT ( * ) PLANE_ANGLE_UNIT ( ) SI_UNIT ( $, .RADIAN. ) );
#145 = VERTEX_POINT ( 'NONE', #302 ) ;
#146 = CONICAL_SURFACE ( 'NONE', #20, 1.499999999999997335, 0.1745329251994261199 ) ;
#147 = ADVANCED_FACE ( 'NONE', ( #207, #179 ), #204, .T. ) ;
#148 = DIRECTION ( 'NONE',  ( 0.0000000000000000000, 1.000000000000000000, 0.0000000000000000000 ) ) ;
#149 = EDGE_LOOP ( 'NONE', ( #77 ) ) ;
#150 = CALENDAR_DATE ( 2021, 1, 12 ) ;
#151 = FACE_OUTER_BOUND ( 'NONE', #152, .T. ) ;
#152 = EDGE_LOOP ( 'NONE', ( #29 ) ) ;
#153 = FACE_OUTER_BOUND ( 'NONE', #249, .T. ) ;
#154 = CIRCLE ( 'NONE', #294, 0.4199999999999993738 ) ;
#155 = CC_DESIGN_DATE_AND_TIME_ASSIGNMENT ( #122, #98, ( #75 ) ) ;
#156 = DIRECTION ( 'NONE',  ( -4.275831445896958607E-31, -1.000000000000000000, -1.224646799147353207E-16 ) ) ;
#157 = DIRECTION ( 'NONE',  ( 3.491481338843133355E-15, -1.224646799147353207E-16, 1.000000000000000000 ) ) ;
#158 = ADVANCED_FACE ( 'NONE', ( #230, #36 ), #146, .T. ) ;
#159 = AXIS2_PLACEMENT_3D ( 'NONE', #26, #281, #190 ) ;
#160 = CARTESIAN_POINT ( 'NONE',  ( 3.142333204958820020E-14, -1.301042606982605321E-15, 9.000000000000000000 ) ) ;
#161 = CARTESIAN_POINT ( 'NONE',  ( 1.745740669421566678E-14, 3.149495543589891808E-33, 5.000000000000000000 ) ) ;
#162 = DIRECTION ( 'NONE',  ( -3.491481338843133355E-15, 1.224646799147353207E-16, -1.000000000000000000 ) ) ;
#163 = CLOSED_SHELL ( 'NONE', ( #199, #147, #208, #127, #158, #25, #107, #118 ) ) ;
#164 = PERSON_AND_ORGANIZATION_ROLE ( 'classification_officer' ) ;
#165 = DIRECTION ( 'NONE',  ( -3.491481338843133355E-15, 1.224646799147353207E-16, -1.000000000000000000 ) ) ;
#166 = CARTESIAN_POINT ( 'NONE',  ( 1.316288464743861212E-13, -4.616918432785521081E-15, 37.69999999999999574 ) ) ;
#167 = ADVANCED_FACE ( 'NONE', ( #295 ), #231, .F. ) ;
#168 = DIRECTION ( 'NONE',  ( 0.0000000000000000000, 1.000000000000000000, 0.0000000000000000000 ) ) ;
#169 = DATE_AND_TIME ( #129, #111 ) ;
#170 = FACE_OUTER_BOUND ( 'NONE', #13, .T. ) ;
#171 = FACE_BOUND ( 'NONE', #32, .T. ) ;
#172 = ORIENTED_EDGE ( 'NONE', *, *, #262, .T. ) ;
#173 = DIRECTION ( 'NONE',  ( 0.0000000000000000000, 1.000000000000000000, 0.0000000000000000000 ) ) ;
#174 = EDGE_CURVE ( 'NONE', #259, #259, #143, .T. ) ;
#175 = DIRECTION ( 'NONE',  ( -3.491481338843133355E-15, 1.224646799147353207E-16, -1.000000000000000000 ) ) ;
#176 = AXIS2_PLACEMENT_3D ( 'NONE', #253, #140, #138 ) ;
#177 = DIRECTION ( 'NONE',  ( -4.275831445896958607E-31, -1.000000000000000000, -1.224646799147353207E-16 ) ) ;
#178 = EDGE_CURVE ( 'NONE', #242, #242, #251, .T. ) ;
#179 = FACE_BOUND ( 'NONE', #23, .T. ) ;
#180 = CARTESIAN_POINT ( 'NONE',  ( -3.013080252276676548E-32, 1.056846286266379310E-33, -8.629804830275936035E-18 ) ) ;
#181 = AXIS2_PLACEMENT_3D ( 'NONE', #161, #157, #298 ) ;
#182 = AXIS2_PLACEMENT_3D ( 'NONE', #261, #125, #148 ) ;
#183 = APPROVAL_STATUS ( 'not_yet_approved' ) ;
#184 = DIRECTION ( 'NONE',  ( 4.275831445896958607E-31, 1.000000000000000000, 1.224646799147353207E-16 ) ) ;
#185 = FACE_OUTER_BOUND ( 'NONE', #132, .T. ) ;
#186 = APPROVAL_STATUS ( 'not_yet_approved' ) ;
#187 = VERTEX_POINT ( 'NONE', #237 ) ;
#188 = APPLICATION_PROTOCOL_DEFINITION ( 'international standard', 'config_control_design', 1994, #137 ) ;
#189 = EDGE_CURVE ( 'NONE', #46, #46, #154, .T. ) ;
#190 = DIRECTION ( 'NONE',  ( 0.0000000000000000000, 1.000000000000000000, 0.0000000000000000000 ) ) ;
#191 = EDGE_CURVE ( 'NONE', #145, #145, #205, .T. ) ;
#192 = DIRECTION ( 'NONE',  ( 1.000000000000000000, 0.0000000000000000000, 0.0000000000000000000 ) ) ;
#193 = DATE_AND_TIME ( #257, #30 ) ;
#194 = CYLINDRICAL_SURFACE ( 'NONE', #238, 0.4199999999999997069 ) ;
#195 = CLOSED_SHELL ( 'NONE', ( #167, #209, #70, #133 ) ) ;
#196 = DIRECTION ( 'NONE',  ( -3.491481338843133355E-15, 1.224646799147353207E-16, -1.000000000000000000 ) ) ;
#197 = CC_DESIGN_APPROVAL ( #296, ( #75 ) ) ;
#198 = DIRECTION ( 'NONE',  ( -3.491481338843133355E-15, 1.224646799147353207E-16, -1.000000000000000000 ) ) ;
#199 = ADVANCED_FACE ( 'NONE', ( #62 ), #15, .F. ) ;
#200 = DIRECTION ( 'NONE',  ( 4.275831445896958607E-31, 1.000000000000000000, 1.224646799147353207E-16 ) ) ;
#201 = CARTESIAN_POINT ( 'NONE',  ( 1.745740669421566678E-14, 3.149495543589891808E-33, 5.000000000000000000 ) ) ;
#202 = LOCAL_TIME ( 11, 40, 0.0000000000000000000, #45 ) ;
#203 = DIRECTION ( 'NONE',  ( 4.275831445896958607E-31, 1.000000000000000000, 1.224646799147353207E-16 ) ) ;
#204 = CONICAL_SURFACE ( 'NONE', #5, 0.3799999999999995604, 0.5235987755982903780 ) ;
#205 = CIRCLE ( 'NONE', #89, 0.4199999999999999845 ) ;
#206 = CALENDAR_DATE ( 2021, 1, 12 ) ;
#207 = FACE_OUTER_BOUND ( 'NONE', #149, .T. ) ;
#208 = ADVANCED_FACE ( 'NONE', ( #185, #79 ), #282, .T. ) ;
#209 = ADVANCED_FACE ( 'NONE', ( #241, #99 ), #245, .T. ) ;
#210 = PERSON_AND_ORGANIZATION ( #274, #24 ) ;
#211 = CARTESIAN_POINT ( 'NONE',  ( 0.0000000000000000000, 0.0000000000000000000, 0.0000000000000000000 ) ) ;
#212 = DIRECTION ( 'NONE',  ( -4.585547486636282430E-31, -1.000000000000000000, -1.290716872006554752E-16 ) ) ;
#213 = APPROVAL ( #67, 'UNSPECIFIED' ) ;
#214 = AXIS2_PLACEMENT_3D ( 'NONE', #284, #47, #212 ) ;
#215 =( LENGTH_UNIT ( ) NAMED_UNIT ( * ) SI_UNIT ( .MILLI., .METRE. ) );
#216 = VERTEX_POINT ( 'NONE', #124 ) ;
#217 = SECURITY_CLASSIFICATION_LEVEL ( 'unclassified' ) ;
#218 = CARTESIAN_POINT ( 'NONE',  ( 1.769930361711787028E-14, 0.3799999999999989497, 5.069282032302757202 ) ) ;
#219 = PERSON_AND_ORGANIZATION ( #274, #24 ) ;
#220 = ORIENTED_EDGE ( 'NONE', *, *, #262, .F. ) ;
#221 = CARTESIAN_POINT ( 'NONE',  ( -6.026160504553353096E-32, 2.113692572532758620E-33, -1.725960966055187207E-17 ) ) ;
#222 = ADVANCED_BREP_SHAPE_REPRESENTATION ( '200768', ( #100, #105, #102 ), #303 ) ;
#223 = ORIENTED_EDGE ( 'NONE', *, *, #278, .F. ) ;
#224 = EDGE_CURVE ( 'NONE', #28, #28, #234, .T. ) ;
#225 = AXIS2_PLACEMENT_3D ( 'NONE', #291, #292, #86 ) ;
#226 = CIRCLE ( 'NONE', #182, 1.499999999999997335 ) ;
#227 = DIRECTION ( 'NONE',  ( 4.275831445896958607E-31, 1.000000000000000000, 1.224646799147353207E-16 ) ) ;
#228 = ORIENTED_EDGE ( 'NONE', *, *, #12, .T. ) ;
#229 = APPLICATION_CONTEXT ( 'configuration controlled 3d designs of mechanical parts and assemblies' ) ;
#230 = FACE_BOUND ( 'NONE', #33, .T. ) ;
#231 = PLANE ( 'NONE',  #43 ) ;
#232 = COORDINATED_UNIVERSAL_TIME_OFFSET ( 1, 0, .AHEAD. ) ;
#233 = CARTESIAN_POINT ( 'NONE',  ( 1.745740669421566678E-14, -6.123233995736766282E-16, 5.000000000000000000 ) ) ;
#234 = CIRCLE ( 'NONE', #159, 0.3799999999999995604 ) ;
#235 = APPROVAL_DATE_TIME ( #169, #213 ) ;
#236 = CARTESIAN_POINT ( 'NONE',  ( 3.263591079328455776E-14, -1.144713656224131427E-15, 9.347296355333845952 ) ) ;
#237 = CARTESIAN_POINT ( 'NONE',  ( 1.316288464743861212E-13, 1.499999999999998668, 37.69999999999999574 ) ) ;
#238 = AXIS2_PLACEMENT_3D ( 'NONE', #108, #196, #289 ) ;
#239 = CC_DESIGN_APPROVAL ( #213, ( #81 ) ) ;
#240 = CIRCLE ( 'NONE', #61, 1.500000000000003331 ) ;
#241 = FACE_BOUND ( 'NONE', #263, .T. ) ;
#242 = VERTEX_POINT ( 'NONE', #258 ) ;
#243 = ORIENTED_EDGE ( 'NONE', *, *, #224, .T. ) ;
#244 = APPROVAL_DATE_TIME ( #41, #296 ) ;
#245 = CONICAL_SURFACE ( 'NONE', #214, 0.4199999999999993738, 0.5235987755982927094 ) ;
#246 = EDGE_LOOP ( 'NONE', ( #88 ) ) ;
#247 = DIRECTION ( 'NONE',  ( -3.491481338843133355E-15, 1.224646799147353207E-16, -1.000000000000000000 ) ) ;
#248 = ORIENTED_EDGE ( 'NONE', *, *, #224, .F. ) ;
#249 = EDGE_LOOP ( 'NONE', ( #271 ) ) ;
#250 = DIRECTION ( 'NONE',  ( 3.491481338843133355E-15, -1.224646799147353207E-16, 1.000000000000000000 ) ) ;
#251 = CIRCLE ( 'NONE', #176, 0.3799999999999998934 ) ;
#252 = FACE_OUTER_BOUND ( 'NONE', #246, .T. ) ;
#253 = CARTESIAN_POINT ( 'NONE',  ( 3.142333204958820020E-14, -1.102182119232617714E-15, 9.000000000000000000 ) ) ;
#254 = COORDINATED_UNIVERSAL_TIME_OFFSET ( 1, 0, .AHEAD. ) ;
#255 = CARTESIAN_POINT ( 'NONE',  ( 3.263591079328455776E-14, 0.4103844939755800225, 9.347296355333845952 ) ) ;
#256 = AXIS2_PLACEMENT_3D ( 'NONE', #112, #198, #173 ) ;
#257 = CALENDAR_DATE ( 2021, 1, 12 ) ;
#258 = CARTESIAN_POINT ( 'NONE',  ( 3.142333204958820020E-14, 0.3799999999999988387, 9.000000000000000000 ) ) ;
#259 = VERTEX_POINT ( 'NONE', #21 ) ;
#260 = APPROVAL_PERSON_ORGANIZATION ( #142, #14, #280 ) ;
#261 = CARTESIAN_POINT ( 'NONE',  ( 5.421157771908862273E-14, -1.901486179857616481E-15, 15.52681296502391639 ) ) ;
#262 = EDGE_CURVE ( 'NONE', #187, #187, #240, .T. ) ;
#263 = EDGE_LOOP ( 'NONE', ( #114 ) ) ;
#264 = PERSON_AND_ORGANIZATION ( #274, #24 ) ;
#265 = ORIENTED_EDGE ( 'NONE', *, *, #267, .T. ) ;
#266 = TOROIDAL_SURFACE ( 'NONE', #109, 2.380000000000000338, 2.000000000000000000 ) ;
#267 = EDGE_CURVE ( 'NONE', #78, #78, #226, .T. ) ;
#268 = EDGE_LOOP ( 'NONE', ( #85 ) ) ;
#269 = EDGE_LOOP ( 'NONE', ( #293 ) ) ;
#270 = DESIGN_CONTEXT ( 'detailed design', #229, 'design' ) ;
#271 = ORIENTED_EDGE ( 'NONE', *, *, #117, .F. ) ;
#272 = DIRECTION ( 'NONE',  ( 0.0000000000000000000, 1.000000000000000000, 0.0000000000000000000 ) ) ;
#273 = DIRECTION ( 'NONE',  ( 3.491481338843133355E-15, -1.224646799147353207E-16, 1.000000000000000000 ) ) ;
#274 = PERSON ( 'UNSPECIFIED', 'UNSPECIFIED', 'UNSPECIFIED', ('UNSPECIFIED'), ('UNSPECIFIED'), ('UNSPECIFIED') ) ;
#275 = DIRECTION ( 'NONE',  ( -3.491481338843133355E-15, 1.224646799147353207E-16, -1.000000000000000000 ) ) ;
#276 = CARTESIAN_POINT ( 'NONE',  ( 1.745740669421566678E-14, -6.123233995736766282E-16, 5.000000000000000000 ) ) ;
#277 = CC_DESIGN_PERSON_AND_ORGANIZATION_ASSIGNMENT ( #279, #73, ( #131 ) ) ;
#278 = EDGE_CURVE ( 'NONE', #72, #72, #110, .T. ) ;
#279 = PERSON_AND_ORGANIZATION ( #274, #24 ) ;
#280 = APPROVAL_ROLE ( '' ) ;
#281 = DIRECTION ( 'NONE',  ( -3.491481338843133355E-15, 1.224646799147353207E-16, -1.000000000000000000 ) ) ;
#282 = CYLINDRICAL_SURFACE ( 'NONE', #34, 0.3799999999999996714 ) ;
#283 = AXIS2_PLACEMENT_3D ( 'NONE', #236, #165, #76 ) ;
#284 = CARTESIAN_POINT ( 'NONE',  ( 3.491481338843132369E-16, -1.224646799147352807E-17, 0.09999999999999996392 ) ) ;
#285 = PERSON_AND_ORGANIZATION ( #274, #24 ) ;
#286 = MECHANICAL_CONTEXT ( 'NONE', #137, 'mechanical' ) ;
#287 = DATE_TIME_ROLE ( 'classification_date' ) ;
#288 = FACE_OUTER_BOUND ( 'NONE', #57, .T. ) ;
#289 = DIRECTION ( 'NONE',  ( 4.275831445896958607E-31, 1.000000000000000000, 1.224646799147353207E-16 ) ) ;
#290 = LOCAL_TIME ( 11, 40, 0.0000000000000000000, #299 ) ;
#291 = CARTESIAN_POINT ( 'NONE',  ( 1.326762908760390423E-13, -4.653657836759941941E-15, 38.00000000000000000 ) ) ;
#292 = DIRECTION ( 'NONE',  ( -3.491481338843133355E-15, 1.224646799147353207E-16, -1.000000000000000000 ) ) ;
#293 = ORIENTED_EDGE ( 'NONE', *, *, #278, .T. ) ;
#294 = AXIS2_PLACEMENT_3D ( 'NONE', #19, #175, #119 ) ;
#295 = FACE_OUTER_BOUND ( 'NONE', #136, .T. ) ;
#296 = APPROVAL ( #183, 'UNSPECIFIED' ) ;
#297 = PRODUCT_RELATED_PRODUCT_CATEGORY ( 'detail', '', ( #68 ) ) ;
#298 = DIRECTION ( 'NONE',  ( -4.275831445896958607E-31, -1.000000000000000000, -1.224646799147353207E-16 ) ) ;
#299 = COORDINATED_UNIVERSAL_TIME_OFFSET ( 1, 0, .AHEAD. ) ;
#300 = FACE_OUTER_BOUND ( 'NONE', #51, .T. ) ;
#301 = DIRECTION ( 'NONE',  ( -3.491481338843133355E-15, 1.224646799147353207E-16, -1.000000000000000000 ) ) ;
#302 = CARTESIAN_POINT ( 'NONE',  ( 1.745740669421566678E-14, 0.4199999999999993738, 5.000000000000000000 ) ) ;
#303 =( GEOMETRIC_REPRESENTATION_CONTEXT ( 3 ) GLOBAL_UNCERTAINTY_ASSIGNED_CONTEXT ( ( #113 ) ) GLOBAL_UNIT_ASSIGNED_CONTEXT ( ( #215, #144, #22 ) ) REPRESENTATION_CONTEXT ( 'NONE', 'WORKASPACE' ) );
ENDSEC;
END-ISO-10303-21;
