ISO-10303-21;
HEADER;
FILE_DESCRIPTION (( 'STEP AP203' ),
    '1' );
FILE_NAME ('200767.step',
    '2021-12-01T10:39:59',
    ( '' ),
    ( '' ),
    'SwSTEP 2.0',
    'SolidWorks 2019',
    '' );
FILE_SCHEMA (( 'CONFIG_CONTROL_DESIGN' ));
ENDSEC;

DATA;
#1 = DIRECTION ( 'NONE',  ( -4.275831445896958607E-31, -1.000000000000000000, -1.224646799147353207E-16 ) ) ;
#2 = ADVANCED_FACE ( 'NONE', ( #17, #227 ), #107, .T. ) ;
#3 = FACE_OUTER_BOUND ( 'NONE', #249, .T. ) ;
#4 = FACE_OUTER_BOUND ( 'NONE', #151, .T. ) ;
#5 = CIRCLE ( 'NONE', #68, 0.4449999999999994515 ) ;
#6 =( NAMED_UNIT ( * ) PLANE_ANGLE_UNIT ( ) SI_UNIT ( $, .RADIAN. ) );
#7 = APPROVAL_ROLE ( '' ) ;
#8 = APPROVAL_DATE_TIME ( #287, #9 ) ;
#9 = APPROVAL ( #101, 'UNSPECIFIED' ) ;
#10 = ADVANCED_FACE ( 'NONE', ( #153, #172 ), #24, .T. ) ;
#11 = ORIENTED_EDGE ( 'NONE', *, *, #117, .T. ) ;
#12 = AXIS2_PLACEMENT_3D ( 'NONE', #92, #215, #284 ) ;
#13 = DATE_TIME_ROLE ( 'classification_date' ) ;
#14 = CARTESIAN_POINT ( 'NONE',  ( 1.745740669421566678E-14, 3.336965516422624693E-33, 5.000000000000000000 ) ) ;
#15 = ORIENTED_EDGE ( 'NONE', *, *, #140, .T. ) ;
#16 = COORDINATED_UNIVERSAL_TIME_OFFSET ( 1, 0, .AHEAD. ) ;
#17 = FACE_OUTER_BOUND ( 'NONE', #294, .T. ) ;
#18 = CONICAL_SURFACE ( 'NONE', #25, 1.200000000000003286, 0.7853981633974453924 ) ;
#19 = DATE_AND_TIME ( #277, #77 ) ;
#20 = DIRECTION ( 'NONE',  ( -4.327932459297164564E-31, -1.000000000000000000, -1.218204688185961542E-16 ) ) ;
#21 = DIRECTION ( 'NONE',  ( 0.0000000000000000000, 1.000000000000000000, 0.0000000000000000000 ) ) ;
#22 = DIRECTION ( 'NONE',  ( 0.0000000000000000000, 1.000000000000000000, 0.0000000000000000000 ) ) ;
#23 = AXIS2_PLACEMENT_3D ( 'NONE', #150, #109, #20 ) ;
#24 = CONICAL_SURFACE ( 'NONE', #23, 0.4449999999999994515, 0.5235987755982929315 ) ;
#25 = AXIS2_PLACEMENT_3D ( 'NONE', #45, #285, #21 ) ;
#26 = FACE_OUTER_BOUND ( 'NONE', #276, .T. ) ;
#27 = EDGE_CURVE ( 'NONE', #290, #290, #252, .T. ) ;
#28 = EDGE_CURVE ( 'NONE', #146, #146, #72, .T. ) ;
#29 = DIRECTION ( 'NONE',  ( -3.491481338843133355E-15, 1.224646799147353207E-16, -1.000000000000000000 ) ) ;
#30 = CARTESIAN_POINT ( 'NONE',  ( 1.326762908760390423E-13, 8.998558695971103225E-33, 38.00000000000000000 ) ) ;
#31 = PRODUCT_DEFINITION_FORMATION_WITH_SPECIFIED_SOURCE ( 'ANY', '', #123, .NOT_KNOWN. ) ;
#32 = CARTESIAN_POINT ( 'NONE',  ( 0.0000000000000000000, 0.0000000000000000000, 0.0000000000000000000 ) ) ;
#33 = VERTEX_POINT ( 'NONE', #75 ) ;
#34 = APPROVAL ( #105, 'UNSPECIFIED' ) ;
#35 = CARTESIAN_POINT ( 'NONE',  ( -9.463679131915806782E-32, 0.3295299461620758152, -2.710505431213761085E-17 ) ) ;
#36 = EDGE_LOOP ( 'NONE', ( #60 ) ) ;
#37 = DIRECTION ( 'NONE',  ( 0.0000000000000000000, 1.000000000000000000, 0.0000000000000000000 ) ) ;
#38 =( GEOMETRIC_REPRESENTATION_CONTEXT ( 3 ) GLOBAL_UNCERTAINTY_ASSIGNED_CONTEXT ( ( #267 ) ) GLOBAL_UNIT_ASSIGNED_CONTEXT ( ( #289, #6, #244 ) ) REPRESENTATION_CONTEXT ( 'NONE', 'WORKASPACE' ) );
#39 = DATE_AND_TIME ( #174, #167 ) ;
#40 = EDGE_LOOP ( 'NONE', ( #111 ) ) ;
#41 = DATE_AND_TIME ( #178, #280 ) ;
#42 = ORIENTED_EDGE ( 'NONE', *, *, #27, .T. ) ;
#43 = DESIGN_CONTEXT ( 'detailed design', #152, 'design' ) ;
#44 = AXIS2_PLACEMENT_3D ( 'NONE', #32, #170, #268 ) ;
#45 = CARTESIAN_POINT ( 'NONE',  ( 1.326762908760390423E-13, -4.653657836759941941E-15, 38.00000000000000000 ) ) ;
#46 = DIRECTION ( 'NONE',  ( 4.275831445896958607E-31, 1.000000000000000000, 1.224646799147353207E-16 ) ) ;
#47 = MANIFOLD_SOLID_BREP ( 'Corps-Déplacer/Copier1[2]', #166 ) ;
#48 = FACE_BOUND ( 'NONE', #84, .T. ) ;
#49 = APPLICATION_CONTEXT ( 'configuration controlled 3d designs of mechanical parts and assemblies' ) ;
#50 = APPROVAL_PERSON_ORGANIZATION ( #253, #34, #275 ) ;
#51 = DIRECTION ( 'NONE',  ( 0.0000000000000000000, 1.000000000000000000, 0.0000000000000000000 ) ) ;
#52 = CYLINDRICAL_SURFACE ( 'NONE', #254, 0.4049999999999998601 ) ;
#53 = AXIS2_PLACEMENT_3D ( 'NONE', #258, #95, #91 ) ;
#54 = VERTEX_POINT ( 'NONE', #100 ) ;
#55 = CARTESIAN_POINT ( 'NONE',  ( 3.142333204958820020E-14, 0.4049999999999991385, 9.000000000000000000 ) ) ;
#56 = CC_DESIGN_DATE_AND_TIME_ASSIGNMENT ( #39, #200, ( #295 ) ) ;
#57 = CONICAL_SURFACE ( 'NONE', #181, 1.499999999999997335, 0.1745329251994260644 ) ;
#58 = CARTESIAN_POINT ( 'NONE',  ( 1.745740669421566678E-14, 0.4449999999999994515, 5.000000000000000000 ) ) ;
#59 = APPROVAL_DATE_TIME ( #41, #204 ) ;
#60 = ORIENTED_EDGE ( 'NONE', *, *, #28, .T. ) ;
#61 = AXIS2_PLACEMENT_3D ( 'NONE', #112, #159, #74 ) ;
#62 = SECURITY_CLASSIFICATION_LEVEL ( 'unclassified' ) ;
#63 = DIRECTION ( 'NONE',  ( -3.491481338843133355E-15, 1.224646799147353207E-16, -1.000000000000000000 ) ) ;
#64 = ORIENTED_EDGE ( 'NONE', *, *, #211, .F. ) ;
#65 = ADVANCED_FACE ( 'NONE', ( #127 ), #226, .T. ) ;
#66 = PERSON_AND_ORGANIZATION ( #264, #175 ) ;
#67 = ORIENTED_EDGE ( 'NONE', *, *, #205, .T. ) ;
#68 = AXIS2_PLACEMENT_3D ( 'NONE', #255, #113, #134 ) ;
#69 = DIRECTION ( 'NONE',  ( 4.275831445896958607E-31, 1.000000000000000000, 1.224646799147353454E-16 ) ) ;
#70 = DIRECTION ( 'NONE',  ( 4.275831445896958607E-31, 1.000000000000000000, 1.224646799147353207E-16 ) ) ;
#71 = DIRECTION ( 'NONE',  ( 0.0000000000000000000, -1.000000000000000000, 0.0000000000000000000 ) ) ;
#72 = CIRCLE ( 'NONE', #118, 0.4450000000000000067 ) ;
#73 = FACE_OUTER_BOUND ( 'NONE', #40, .T. ) ;
#74 = DIRECTION ( 'NONE',  ( 4.275831445896958607E-31, 1.000000000000000000, 1.224646799147353207E-16 ) ) ;
#75 = CARTESIAN_POINT ( 'NONE',  ( 1.326762908760390423E-13, 1.199999999999998845, 38.00000000000000000 ) ) ;
#76 = FACE_OUTER_BOUND ( 'NONE', #199, .T. ) ;
#77 = LOCAL_TIME ( 11, 39, 59.00000000000000000, #292 ) ;
#78 = VERTEX_POINT ( 'NONE', #286 ) ;
#79 = VERTEX_POINT ( 'NONE', #261 ) ;
#80 = CARTESIAN_POINT ( 'NONE',  ( 6.982962677686268683E-16, 0.4449999999999994515, 0.2000000000000000389 ) ) ;
#81 = LOCAL_TIME ( 11, 39, 59.00000000000000000, #218 ) ;
#82 = EDGE_LOOP ( 'NONE', ( #206 ) ) ;
#83 = ORIENTED_EDGE ( 'NONE', *, *, #220, .T. ) ;
#84 = EDGE_LOOP ( 'NONE', ( #42 ) ) ;
#85 = CC_DESIGN_SECURITY_CLASSIFICATION ( #263, ( #31 ) ) ;
#86 = APPROVAL_DATE_TIME ( #19, #34 ) ;
#87 = ADVANCED_FACE ( 'NONE', ( #186, #301 ), #18, .T. ) ;
#88 = EDGE_LOOP ( 'NONE', ( #132 ) ) ;
#89 = DIRECTION ( 'NONE',  ( -3.491481338843133355E-15, 1.224646799147353207E-16, -1.000000000000000000 ) ) ;
#90 = DIRECTION ( 'NONE',  ( 0.0000000000000000000, 1.000000000000000000, 0.0000000000000000000 ) ) ;
#91 = DIRECTION ( 'NONE',  ( 0.0000000000000000000, 1.000000000000000000, 0.0000000000000000000 ) ) ;
#92 = CARTESIAN_POINT ( 'NONE',  ( -1.177691209678058200E-31, 4.130784702386766665E-33, -3.373041684559809449E-17 ) ) ;
#93 = CARTESIAN_POINT ( 'NONE',  ( -2.355382419356116400E-31, 8.261569404773533329E-33, -6.746083369119618898E-17 ) ) ;
#94 = AXIS2_PLACEMENT_3D ( 'NONE', #234, #180, #22 ) ;
#95 = DIRECTION ( 'NONE',  ( -3.491481338843133355E-15, 1.224646799147353207E-16, -1.000000000000000000 ) ) ;
#96 = CARTESIAN_POINT ( 'NONE',  ( 0.0000000000000000000, 0.0000000000000000000, 0.0000000000000000000 ) ) ;
#97 = CALENDAR_DATE ( 2021, 1, 12 ) ;
#98 = CC_DESIGN_PERSON_AND_ORGANIZATION_ASSIGNMENT ( #125, #129, ( #31 ) ) ;
#99 = CC_DESIGN_APPROVAL ( #9, ( #295 ) ) ;
#100 = CARTESIAN_POINT ( 'NONE',  ( 1.745740669421566678E-14, 0.4449999999999994515, 5.000000000000000000 ) ) ;
#101 = APPROVAL_STATUS ( 'not_yet_approved' ) ;
#102 = CARTESIAN_POINT ( 'NONE',  ( 5.371654835307572001E-14, 1.499999999999995559, 15.38503091953346846 ) ) ;
#103 = ORIENTED_EDGE ( 'NONE', *, *, #229, .T. ) ;
#104 = AXIS2_PLACEMENT_3D ( 'NONE', #93, #282, #70 ) ;
#105 = APPROVAL_STATUS ( 'not_yet_approved' ) ;
#106 = EDGE_LOOP ( 'NONE', ( #11 ) ) ;
#107 = CYLINDRICAL_SURFACE ( 'NONE', #202, 0.4449999999999997846 ) ;
#108 = ADVANCED_FACE ( 'NONE', ( #115, #161 ), #187, .F. ) ;
#109 = DIRECTION ( 'NONE',  ( 3.491481338843133355E-15, -1.224646799147353207E-16, 1.000000000000000000 ) ) ;
#110 = CC_DESIGN_APPROVAL ( #204, ( #31 ) ) ;
#111 = ORIENTED_EDGE ( 'NONE', *, *, #27, .F. ) ;
#112 = CARTESIAN_POINT ( 'NONE',  ( 3.142333204958820020E-14, -1.301042606982605321E-15, 9.000000000000000000 ) ) ;
#113 = DIRECTION ( 'NONE',  ( -3.491481338843133355E-15, 1.224646799147353207E-16, -1.000000000000000000 ) ) ;
#114 = AXIS2_PLACEMENT_3D ( 'NONE', #30, #256, #46 ) ;
#115 = FACE_OUTER_BOUND ( 'NONE', #248, .T. ) ;
#116 = DIRECTION ( 'NONE',  ( 0.0000000000000000000, 1.000000000000000000, 0.0000000000000000000 ) ) ;
#117 = EDGE_CURVE ( 'NONE', #54, #54, #133, .T. ) ;
#118 = AXIS2_PLACEMENT_3D ( 'NONE', #246, #223, #37 ) ;
#119 = CIRCLE ( 'NONE', #291, 1.499999999999997335 ) ;
#120 = CC_DESIGN_PERSON_AND_ORGANIZATION_ASSIGNMENT ( #66, #222, ( #31 ) ) ;
#121 = PERSON_AND_ORGANIZATION_ROLE ( 'design_owner' ) ;
#122 = PERSON_AND_ORGANIZATION ( #264, #175 ) ;
#123 = PRODUCT ( '200767', '200767', '', ( #265 ) ) ;
#124 = VERTEX_POINT ( 'NONE', #102 ) ;
#125 = PERSON_AND_ORGANIZATION ( #264, #175 ) ;
#126 = DIRECTION ( 'NONE',  ( 4.275831445896958607E-31, 1.000000000000000000, 1.224646799147353207E-16 ) ) ;
#127 = FACE_OUTER_BOUND ( 'NONE', #298, .T. ) ;
#128 = LOCAL_TIME ( 11, 39, 59.00000000000000000, #297 ) ;
#129 = PERSON_AND_ORGANIZATION_ROLE ( 'creator' ) ;
#130 = EDGE_LOOP ( 'NONE', ( #232 ) ) ;
#131 = PERSON_AND_ORGANIZATION ( #264, #175 ) ;
#132 = ORIENTED_EDGE ( 'NONE', *, *, #141, .T. ) ;
#133 = CIRCLE ( 'NONE', #144, 0.4450000000000000067 ) ;
#134 = DIRECTION ( 'NONE',  ( 4.327932459297164564E-31, 1.000000000000000000, 1.218204688185961542E-16 ) ) ;
#135 = FACE_BOUND ( 'NONE', #270, .T. ) ;
#136 = CARTESIAN_POINT ( 'NONE',  ( 1.769930361711787028E-14, -6.208080014834760946E-16, 5.069282032302757202 ) ) ;
#137 = AXIS2_PLACEMENT_3D ( 'NONE', #136, #235, #116 ) ;
#138 = MANIFOLD_SOLID_BREP ( 'Corps-Déplacer/Copier1[1]', #209 ) ;
#139 = PLANE ( 'NONE',  #114 ) ;
#140 = EDGE_CURVE ( 'NONE', #78, #78, #195, .T. ) ;
#141 = EDGE_CURVE ( 'NONE', #266, #266, #5, .T. ) ;
#142 = PLANE ( 'NONE',  #288 ) ;
#143 = DIRECTION ( 'NONE',  ( 0.0000000000000000000, 1.000000000000000000, 0.0000000000000000000 ) ) ;
#144 = AXIS2_PLACEMENT_3D ( 'NONE', #207, #213, #90 ) ;
#145 = CARTESIAN_POINT ( 'NONE',  ( 1.769930361711787028E-14, 0.4049999999999989719, 5.069282032302757202 ) ) ;
#146 = VERTEX_POINT ( 'NONE', #58 ) ;
#147 = VERTEX_POINT ( 'NONE', #35 ) ;
#148 = CC_DESIGN_PERSON_AND_ORGANIZATION_ASSIGNMENT ( #191, #193, ( #295 ) ) ;
#149 = APPLICATION_PROTOCOL_DEFINITION ( 'international standard', 'config_control_design', 1994, #49 ) ;
#150 = CARTESIAN_POINT ( 'NONE',  ( 6.982962677686266711E-16, -2.449293598294706229E-17, 0.1999999999999999833 ) ) ;
#151 = EDGE_LOOP ( 'NONE', ( #83 ) ) ;
#152 = APPLICATION_CONTEXT ( 'configuration controlled 3d designs of mechanical parts and assemblies' ) ;
#153 = FACE_BOUND ( 'NONE', #155, .T. ) ;
#154 = DATE_AND_TIME ( #230, #128 ) ;
#155 = EDGE_LOOP ( 'NONE', ( #201 ) ) ;
#156 = PERSON_AND_ORGANIZATION ( #264, #175 ) ;
#157 = EDGE_LOOP ( 'NONE', ( #251 ) ) ;
#158 = CIRCLE ( 'NONE', #104, 0.3295299461620758152 ) ;
#159 = DIRECTION ( 'NONE',  ( -3.491481338843133355E-15, 1.224646799147353207E-16, -1.000000000000000000 ) ) ;
#160 = DIRECTION ( 'NONE',  ( 3.491481338843133355E-15, -1.224646799147353207E-16, 1.000000000000000000 ) ) ;
#161 = FACE_OUTER_BOUND ( 'NONE', #177, .T. ) ;
#162 = ADVANCED_FACE ( 'NONE', ( #73, #208 ), #52, .T. ) ;
#163 = DIRECTION ( 'NONE',  ( -3.491481338843133355E-15, 1.224646799147353207E-16, -1.000000000000000000 ) ) ;
#164 = PRODUCT_DEFINITION_SHAPE ( 'NONE', 'NONE',  #295 ) ;
#165 = CYLINDRICAL_SURFACE ( 'NONE', #231, 1.500000000000000444 ) ;
#166 = CLOSED_SHELL ( 'NONE', ( #183, #10, #2, #65 ) ) ;
#167 = LOCAL_TIME ( 11, 39, 59.00000000000000000, #16 ) ;
#168 = DIRECTION ( 'NONE',  ( -4.275831445896958607E-31, -1.000000000000000000, -1.224646799147353207E-16 ) ) ;
#169 = ADVANCED_FACE ( 'NONE', ( #259 ), #139, .F. ) ;
#170 = DIRECTION ( 'NONE',  ( 0.0000000000000000000, 0.0000000000000000000, 1.000000000000000000 ) ) ;
#171 = AXIS2_PLACEMENT_3D ( 'NONE', #257, #29, #303 ) ;
#172 = FACE_OUTER_BOUND ( 'NONE', #88, .T. ) ;
#173 = ORIENTED_EDGE ( 'NONE', *, *, #141, .F. ) ;
#174 = CALENDAR_DATE ( 2021, 1, 12 ) ;
#175 = ORGANIZATION ( 'UNSPECIFIED', 'UNSPECIFIED', '' ) ;
#176 = APPROVAL_ROLE ( '' ) ;
#177 = EDGE_LOOP ( 'NONE', ( #15 ) ) ;
#178 = CALENDAR_DATE ( 2021, 1, 12 ) ;
#179 = DIRECTION ( 'NONE',  ( 0.0000000000000000000, 1.000000000000000000, 0.0000000000000000000 ) ) ;
#180 = DIRECTION ( 'NONE',  ( -3.491481338843133355E-15, 1.224646799147353207E-16, -1.000000000000000000 ) ) ;
#181 = AXIS2_PLACEMENT_3D ( 'NONE', #238, #160, #71 ) ;
#182 = CARTESIAN_POINT ( 'NONE',  ( 5.371654835307572001E-14, -1.884122887038972144E-15, 15.38503091953346846 ) ) ;
#183 = ADVANCED_FACE ( 'NONE', ( #26 ), #233, .F. ) ;
#184 = EDGE_CURVE ( 'NONE', #79, #79, #239, .T. ) ;
#185 = CARTESIAN_POINT ( 'NONE',  ( 1.316288464743861212E-13, -4.616918432785521081E-15, 37.69999999999999574 ) ) ;
#186 = FACE_OUTER_BOUND ( 'NONE', #82, .T. ) ;
#187 = TOROIDAL_SURFACE ( 'NONE', #61, 2.405000000000000249, 2.000000000000000000 ) ;
#188 = DIRECTION ( 'NONE',  ( 3.491481338843133355E-15, -1.224646799147353207E-16, 1.000000000000000000 ) ) ;
#189 = DIRECTION ( 'NONE',  ( 4.275831445896958607E-31, 1.000000000000000000, 1.224646799147353207E-16 ) ) ;
#190 = CIRCLE ( 'NONE', #53, 0.4050000000000001932 ) ;
#191 = PERSON_AND_ORGANIZATION ( #264, #175 ) ;
#192 = ADVANCED_FACE ( 'NONE', ( #135, #4 ), #57, .T. ) ;
#193 = PERSON_AND_ORGANIZATION_ROLE ( 'creator' ) ;
#194 = DIRECTION ( 'NONE',  ( 3.491481338843133355E-15, -1.224646799147353207E-16, 1.000000000000000000 ) ) ;
#195 = CIRCLE ( 'NONE', #94, 0.4353844939755816545 ) ;
#196 = COORDINATED_UNIVERSAL_TIME_OFFSET ( 1, 0, .AHEAD. ) ;
#197 = ORIENTED_EDGE ( 'NONE', *, *, #140, .F. ) ;
#198 = SHAPE_DEFINITION_REPRESENTATION ( #164, #210 ) ;
#199 = EDGE_LOOP ( 'NONE', ( #278 ) ) ;
#200 = DATE_TIME_ROLE ( 'creation_date' ) ;
#201 = ORIENTED_EDGE ( 'NONE', *, *, #229, .F. ) ;
#202 = AXIS2_PLACEMENT_3D ( 'NONE', #274, #63, #126 ) ;
#203 = EDGE_LOOP ( 'NONE', ( #228 ) ) ;
#204 = APPROVAL ( #225, 'UNSPECIFIED' ) ;
#205 = EDGE_CURVE ( 'NONE', #33, #33, #212, .T. ) ;
#206 = ORIENTED_EDGE ( 'NONE', *, *, #184, .F. ) ;
#207 = CARTESIAN_POINT ( 'NONE',  ( 1.745740669421566678E-14, -6.123233995736766282E-16, 5.000000000000000000 ) ) ;
#208 = FACE_OUTER_BOUND ( 'NONE', #130, .T. ) ;
#209 = CLOSED_SHELL ( 'NONE', ( #272, #241, #162, #108, #192, #273, #87, #169 ) ) ;
#210 = ADVANCED_BREP_SHAPE_REPRESENTATION ( '200767', ( #138, #47, #44 ), #38 ) ;
#211 = EDGE_CURVE ( 'NONE', #240, #240, #190, .T. ) ;
#212 = CIRCLE ( 'NONE', #171, 1.200000000000003286 ) ;
#213 = DIRECTION ( 'NONE',  ( -3.491481338843133355E-15, 1.224646799147353207E-16, -1.000000000000000000 ) ) ;
#214 = FACE_OUTER_BOUND ( 'NONE', #106, .T. ) ;
#215 = DIRECTION ( 'NONE',  ( 3.491481338843133355E-15, -1.224646799147353207E-16, 1.000000000000000000 ) ) ;
#216 = PERSON_AND_ORGANIZATION ( #264, #175 ) ;
#217 = APPLICATION_PROTOCOL_DEFINITION ( 'international standard', 'config_control_design', 1994, #152 ) ;
#218 = COORDINATED_UNIVERSAL_TIME_OFFSET ( 1, 0, .AHEAD. ) ;
#219 = PRODUCT_RELATED_PRODUCT_CATEGORY ( 'detail', '', ( #123 ) ) ;
#220 = EDGE_CURVE ( 'NONE', #124, #124, #119, .T. ) ;
#221 = CC_DESIGN_APPROVAL ( #34, ( #263 ) ) ;
#222 = PERSON_AND_ORGANIZATION_ROLE ( 'design_supplier' ) ;
#223 = DIRECTION ( 'NONE',  ( -3.491481338843133355E-15, 1.224646799147353207E-16, -1.000000000000000000 ) ) ;
#224 = CONICAL_SURFACE ( 'NONE', #137, 0.4049999999999995270, 0.5235987755982909331 ) ;
#225 = APPROVAL_STATUS ( 'not_yet_approved' ) ;
#226 = PLANE ( 'NONE',  #243 ) ;
#227 = FACE_OUTER_BOUND ( 'NONE', #36, .T. ) ;
#228 = ORIENTED_EDGE ( 'NONE', *, *, #220, .F. ) ;
#229 = EDGE_CURVE ( 'NONE', #147, #147, #158, .T. ) ;
#230 = CALENDAR_DATE ( 2021, 1, 12 ) ;
#231 = AXIS2_PLACEMENT_3D ( 'NONE', #96, #245, #189 ) ;
#232 = ORIENTED_EDGE ( 'NONE', *, *, #211, .T. ) ;
#233 = PLANE ( 'NONE',  #12 ) ;
#234 = CARTESIAN_POINT ( 'NONE',  ( 3.263591079328456407E-14, -1.144713656224131624E-15, 9.347296355333847728 ) ) ;
#235 = DIRECTION ( 'NONE',  ( -3.491481338843133355E-15, 1.224646799147353207E-16, -1.000000000000000000 ) ) ;
#236 = APPROVAL_PERSON_ORGANIZATION ( #122, #9, #7 ) ;
#237 = DIRECTION ( 'NONE',  ( -3.491481338843133355E-15, 1.224646799147353207E-16, -1.000000000000000000 ) ) ;
#238 = CARTESIAN_POINT ( 'NONE',  ( 5.371654835307572001E-14, -1.884122887038972144E-15, 15.38503091953346846 ) ) ;
#239 = CIRCLE ( 'NONE', #302, 1.500000000000003331 ) ;
#240 = VERTEX_POINT ( 'NONE', #55 ) ;
#241 = ADVANCED_FACE ( 'NONE', ( #3, #48 ), #224, .T. ) ;
#242 = FACE_OUTER_BOUND ( 'NONE', #203, .T. ) ;
#243 = AXIS2_PLACEMENT_3D ( 'NONE', #14, #188, #1 ) ;
#244 =( NAMED_UNIT ( * ) SI_UNIT ( $, .STERADIAN. ) SOLID_ANGLE_UNIT ( ) );
#245 = DIRECTION ( 'NONE',  ( -3.491481338843133355E-15, 1.224646799147353207E-16, -1.000000000000000000 ) ) ;
#246 = CARTESIAN_POINT ( 'NONE',  ( 1.745740669421566678E-14, -6.123233995736766282E-16, 5.000000000000000000 ) ) ;
#247 = APPROVAL_PERSON_ORGANIZATION ( #156, #204, #176 ) ;
#248 = EDGE_LOOP ( 'NONE', ( #64 ) ) ;
#249 = EDGE_LOOP ( 'NONE', ( #293 ) ) ;
#250 = CC_DESIGN_PERSON_AND_ORGANIZATION_ASSIGNMENT ( #131, #269, ( #263 ) ) ;
#251 = ORIENTED_EDGE ( 'NONE', *, *, #205, .F. ) ;
#252 = CIRCLE ( 'NONE', #262, 0.4049999999999995270 ) ;
#253 = PERSON_AND_ORGANIZATION ( #264, #175 ) ;
#254 = AXIS2_PLACEMENT_3D ( 'NONE', #281, #163, #69 ) ;
#255 = CARTESIAN_POINT ( 'NONE',  ( 6.982962677686266711E-16, -2.449293598294706229E-17, 0.1999999999999999833 ) ) ;
#256 = DIRECTION ( 'NONE',  ( -3.491481338843133355E-15, 1.224646799147353207E-16, -1.000000000000000000 ) ) ;
#257 = CARTESIAN_POINT ( 'NONE',  ( 1.326762908760390423E-13, -4.653657836759941941E-15, 38.00000000000000000 ) ) ;
#258 = CARTESIAN_POINT ( 'NONE',  ( 3.142333204958820020E-14, -1.102182119232617714E-15, 9.000000000000000000 ) ) ;
#259 = FACE_OUTER_BOUND ( 'NONE', #157, .T. ) ;
#260 = CC_DESIGN_PERSON_AND_ORGANIZATION_ASSIGNMENT ( #216, #121, ( #123 ) ) ;
#261 = CARTESIAN_POINT ( 'NONE',  ( 1.316288464743861212E-13, 1.499999999999998668, 37.69999999999999574 ) ) ;
#262 = AXIS2_PLACEMENT_3D ( 'NONE', #300, #89, #179 ) ;
#263 = SECURITY_CLASSIFICATION ( '', '', #62 ) ;
#264 = PERSON ( 'UNSPECIFIED', 'UNSPECIFIED', 'UNSPECIFIED', ('UNSPECIFIED'), ('UNSPECIFIED'), ('UNSPECIFIED') ) ;
#265 = MECHANICAL_CONTEXT ( 'NONE', #49, 'mechanical' ) ;
#266 = VERTEX_POINT ( 'NONE', #80 ) ;
#267 = UNCERTAINTY_MEASURE_WITH_UNIT (LENGTH_MEASURE( 1.000000000000000082E-05 ), #289, 'distance_accuracy_value', 'NONE');
#268 = DIRECTION ( 'NONE',  ( 1.000000000000000000, 0.0000000000000000000, 0.0000000000000000000 ) ) ;
#269 = PERSON_AND_ORGANIZATION_ROLE ( 'classification_officer' ) ;
#270 = EDGE_LOOP ( 'NONE', ( #197 ) ) ;
#271 = EDGE_LOOP ( 'NONE', ( #67 ) ) ;
#272 = ADVANCED_FACE ( 'NONE', ( #214 ), #142, .F. ) ;
#273 = ADVANCED_FACE ( 'NONE', ( #242, #76 ), #165, .T. ) ;
#274 = CARTESIAN_POINT ( 'NONE',  ( 0.0000000000000000000, 0.0000000000000000000, 0.0000000000000000000 ) ) ;
#275 = APPROVAL_ROLE ( '' ) ;
#276 = EDGE_LOOP ( 'NONE', ( #103 ) ) ;
#277 = CALENDAR_DATE ( 2021, 1, 12 ) ;
#278 = ORIENTED_EDGE ( 'NONE', *, *, #184, .T. ) ;
#279 = CARTESIAN_POINT ( 'NONE',  ( 1.745740669421566678E-14, 3.336965516422624693E-33, 5.000000000000000000 ) ) ;
#280 = LOCAL_TIME ( 11, 39, 59.00000000000000000, #196 ) ;
#281 = CARTESIAN_POINT ( 'NONE',  ( 0.0000000000000000000, 0.0000000000000000000, 0.0000000000000000000 ) ) ;
#282 = DIRECTION ( 'NONE',  ( -3.491481338843133355E-15, 1.224646799147353207E-16, -1.000000000000000000 ) ) ;
#283 = DIRECTION ( 'NONE',  ( -3.491481338843133355E-15, 1.224646799147353207E-16, -1.000000000000000000 ) ) ;
#284 = DIRECTION ( 'NONE',  ( -4.275831445896958607E-31, -1.000000000000000000, -1.224646799147353207E-16 ) ) ;
#285 = DIRECTION ( 'NONE',  ( -3.491481338843133355E-15, 1.224646799147353207E-16, -1.000000000000000000 ) ) ;
#286 = CARTESIAN_POINT ( 'NONE',  ( 3.263591079328456407E-14, 0.4353844939755805443, 9.347296355333847728 ) ) ;
#287 = DATE_AND_TIME ( #97, #81 ) ;
#288 = AXIS2_PLACEMENT_3D ( 'NONE', #279, #194, #168 ) ;
#289 =( LENGTH_UNIT ( ) NAMED_UNIT ( * ) SI_UNIT ( .MILLI., .METRE. ) );
#290 = VERTEX_POINT ( 'NONE', #145 ) ;
#291 = AXIS2_PLACEMENT_3D ( 'NONE', #182, #237, #51 ) ;
#292 = COORDINATED_UNIVERSAL_TIME_OFFSET ( 1, 0, .AHEAD. ) ;
#293 = ORIENTED_EDGE ( 'NONE', *, *, #117, .F. ) ;
#294 = EDGE_LOOP ( 'NONE', ( #173 ) ) ;
#295 = PRODUCT_DEFINITION ( 'UNKNOWN', '', #31, #43 ) ;
#296 = CC_DESIGN_DATE_AND_TIME_ASSIGNMENT ( #154, #13, ( #263 ) ) ;
#297 = COORDINATED_UNIVERSAL_TIME_OFFSET ( 1, 0, .AHEAD. ) ;
#298 = EDGE_LOOP ( 'NONE', ( #299 ) ) ;
#299 = ORIENTED_EDGE ( 'NONE', *, *, #28, .F. ) ;
#300 = CARTESIAN_POINT ( 'NONE',  ( 1.769930361711787028E-14, -6.208080014834760946E-16, 5.069282032302757202 ) ) ;
#301 = FACE_BOUND ( 'NONE', #271, .T. ) ;
#302 = AXIS2_PLACEMENT_3D ( 'NONE', #185, #283, #143 ) ;
#303 = DIRECTION ( 'NONE',  ( 0.0000000000000000000, 1.000000000000000000, 0.0000000000000000000 ) ) ;
ENDSEC;
END-ISO-10303-21;
