ISO-10303-21;
HEADER;
FILE_DESCRIPTION (( 'STEP AP203' ),
    '1' );
FILE_NAME ('200766.step',
    '2021-12-01T10:39:59',
    ( '' ),
    ( '' ),
    'SwSTEP 2.0',
    'SolidWorks 2019',
    '' );
FILE_SCHEMA (( 'CONFIG_CONTROL_DESIGN' ));
ENDSEC;

DATA;
#1 = DATE_AND_TIME ( #28, #300 ) ;
#2 = ADVANCED_BREP_SHAPE_REPRESENTATION ( '200766', ( #202, #207, #164 ), #93 ) ;
#3 = ADVANCED_FACE ( 'NONE', ( #100 ), #140, .F. ) ;
#4 = DATE_AND_TIME ( #286, #216 ) ;
#5 = EDGE_LOOP ( 'NONE', ( #56 ) ) ;
#6 = CALENDAR_DATE ( 2021, 1, 12 ) ;
#7 = CONICAL_SURFACE ( 'NONE', #192, 1.499999999999997335, 0.1745329251994260922 ) ;
#8 = ORIENTED_EDGE ( 'NONE', *, *, #149, .F. ) ;
#9 = ORIENTED_EDGE ( 'NONE', *, *, #297, .F. ) ;
#10 = AXIS2_PLACEMENT_3D ( 'NONE', #21, #132, #229 ) ;
#11 = ORIENTED_EDGE ( 'NONE', *, *, #69, .T. ) ;
#12 = ADVANCED_FACE ( 'NONE', ( #290, #166 ), #190, .T. ) ;
#13 = DIRECTION ( 'NONE',  ( -4.275831445896958607E-31, -1.000000000000000000, -1.224646799147353207E-16 ) ) ;
#14 = CC_DESIGN_PERSON_AND_ORGANIZATION_ASSIGNMENT ( #92, #94, ( #60 ) ) ;
#15 = DIRECTION ( 'NONE',  ( 0.0000000000000000000, 1.000000000000000000, 0.0000000000000000000 ) ) ;
#16 = DIRECTION ( 'NONE',  ( 3.491481338843133355E-15, -1.224646799147353207E-16, 1.000000000000000000 ) ) ;
#17 = AXIS2_PLACEMENT_3D ( 'NONE', #169, #197, #15 ) ;
#18 = FACE_OUTER_BOUND ( 'NONE', #187, .T. ) ;
#19 = CARTESIAN_POINT ( 'NONE',  ( 0.0000000000000000000, 0.0000000000000000000, 0.0000000000000000000 ) ) ;
#20 = ADVANCED_FACE ( 'NONE', ( #259, #80 ), #238, .F. ) ;
#21 = CARTESIAN_POINT ( 'NONE',  ( -8.172502962824276960E-32, 2.866528164736289970E-33, -2.340697878549209658E-17 ) ) ;
#22 = VERTEX_POINT ( 'NONE', #198 ) ;
#23 = FACE_OUTER_BOUND ( 'NONE', #263, .T. ) ;
#24 = CARTESIAN_POINT ( 'NONE',  ( 3.491481338843132369E-16, -1.224646799147352807E-17, 0.09999999999999996392 ) ) ;
#25 = CONICAL_SURFACE ( 'NONE', #180, 0.3999999999999995226, 0.5235987755982909331 ) ;
#26 = DIRECTION ( 'NONE',  ( -3.491481338843133355E-15, 1.224646799147353207E-16, -1.000000000000000000 ) ) ;
#27 = CC_DESIGN_APPROVAL ( #261, ( #275 ) ) ;
#28 = CALENDAR_DATE ( 2021, 1, 12 ) ;
#29 = CC_DESIGN_PERSON_AND_ORGANIZATION_ASSIGNMENT ( #236, #208, ( #275 ) ) ;
#30 = CC_DESIGN_PERSON_AND_ORGANIZATION_ASSIGNMENT ( #196, #147, ( #175 ) ) ;
#31 = PERSON_AND_ORGANIZATION ( #134, #42 ) ;
#32 = APPROVAL_DATE_TIME ( #181, #261 ) ;
#33 = CIRCLE ( 'NONE', #111, 1.500000000000003331 ) ;
#34 = EDGE_LOOP ( 'NONE', ( #266 ) ) ;
#35 = CARTESIAN_POINT ( 'NONE',  ( 0.0000000000000000000, 0.0000000000000000000, 0.0000000000000000000 ) ) ;
#36 = AXIS2_PLACEMENT_3D ( 'NONE', #89, #44, #154 ) ;
#37 = EDGE_LOOP ( 'NONE', ( #8 ) ) ;
#38 = CARTESIAN_POINT ( 'NONE',  ( 0.0000000000000000000, 0.0000000000000000000, 0.0000000000000000000 ) ) ;
#39 = DIRECTION ( 'NONE',  ( 0.0000000000000000000, -1.000000000000000000, 0.0000000000000000000 ) ) ;
#40 = DIRECTION ( 'NONE',  ( 0.0000000000000000000, 1.000000000000000000, 0.0000000000000000000 ) ) ;
#41 = VERTEX_POINT ( 'NONE', #128 ) ;
#42 = ORGANIZATION ( 'UNSPECIFIED', 'UNSPECIFIED', '' ) ;
#43 = DIRECTION ( 'NONE',  ( 0.0000000000000000000, 1.000000000000000000, 0.0000000000000000000 ) ) ;
#44 = DIRECTION ( 'NONE',  ( -3.491481338843133355E-15, 1.224646799147353207E-16, -1.000000000000000000 ) ) ;
#45 = DIRECTION ( 'NONE',  ( -3.491481338843133355E-15, 1.224646799147353207E-16, -1.000000000000000000 ) ) ;
#46 = CARTESIAN_POINT ( 'NONE',  ( 0.0000000000000000000, 0.3822649730810376845, 0.0000000000000000000 ) ) ;
#47 = CARTESIAN_POINT ( 'NONE',  ( 3.263591079328455776E-14, -1.144713656224131427E-15, 9.347296355333845952 ) ) ;
#48 = UNCERTAINTY_MEASURE_WITH_UNIT (LENGTH_MEASURE( 1.000000000000000082E-05 ), #86, 'distance_accuracy_value', 'NONE');
#49 = CLOSED_SHELL ( 'NONE', ( #3, #205, #182, #20, #258, #12, #276, #168 ) ) ;
#50 = AXIS2_PLACEMENT_3D ( 'NONE', #174, #271, #105 ) ;
#51 = APPROVAL_ROLE ( '' ) ;
#52 = COORDINATED_UNIVERSAL_TIME_OFFSET ( 1, 0, .AHEAD. ) ;
#53 = AXIS2_PLACEMENT_3D ( 'NONE', #75, #84, #191 ) ;
#54 = COORDINATED_UNIVERSAL_TIME_OFFSET ( 1, 0, .AHEAD. ) ;
#55 = EDGE_LOOP ( 'NONE', ( #121 ) ) ;
#56 = ORIENTED_EDGE ( 'NONE', *, *, #298, .T. ) ;
#57 = CIRCLE ( 'NONE', #103, 1.499999999999997335 ) ;
#58 = CC_DESIGN_DATE_AND_TIME_ASSIGNMENT ( #135, #74, ( #60 ) ) ;
#59 = ORIENTED_EDGE ( 'NONE', *, *, #144, .F. ) ;
#60 = SECURITY_CLASSIFICATION ( '', '', #118 ) ;
#61 = CYLINDRICAL_SURFACE ( 'NONE', #209, 0.3999999999999997446 ) ;
#62 = CARTESIAN_POINT ( 'NONE',  ( 1.769930361711787028E-14, -6.208080014834760946E-16, 5.069282032302757202 ) ) ;
#63 = DIRECTION ( 'NONE',  ( 0.0000000000000000000, 0.0000000000000000000, 1.000000000000000000 ) ) ;
#64 = PLANE ( 'NONE',  #115 ) ;
#65 = VERTEX_POINT ( 'NONE', #228 ) ;
#66 = CONICAL_SURFACE ( 'NONE', #255, 1.200000000000003286, 0.7853981633974453924 ) ;
#67 = CARTESIAN_POINT ( 'NONE',  ( 1.326762908760390423E-13, -4.653657836759941941E-15, 38.00000000000000000 ) ) ;
#68 = DIRECTION ( 'NONE',  ( 3.491481338843133355E-15, -1.224646799147353207E-16, 1.000000000000000000 ) ) ;
#69 = EDGE_CURVE ( 'NONE', #172, #172, #78, .T. ) ;
#70 = FACE_OUTER_BOUND ( 'NONE', #239, .T. ) ;
#71 = AXIS2_PLACEMENT_3D ( 'NONE', #292, #227, #250 ) ;
#72 = ADVANCED_FACE ( 'NONE', ( #244, #23 ), #151, .T. ) ;
#73 = APPROVAL_PERSON_ORGANIZATION ( #91, #219, #51 ) ;
#74 = DATE_TIME_ROLE ( 'classification_date' ) ;
#75 = CARTESIAN_POINT ( 'NONE',  ( 3.142333204958820020E-14, -1.301042606982605321E-15, 9.000000000000000000 ) ) ;
#76 = EDGE_LOOP ( 'NONE', ( #217 ) ) ;
#77 = ORIENTED_EDGE ( 'NONE', *, *, #159, .T. ) ;
#78 = CIRCLE ( 'NONE', #260, 0.4400000000000000022 ) ;
#79 = EDGE_LOOP ( 'NONE', ( #167 ) ) ;
#80 = FACE_OUTER_BOUND ( 'NONE', #241, .T. ) ;
#81 = CYLINDRICAL_SURFACE ( 'NONE', #50, 0.4399999999999997247 ) ;
#82 = LOCAL_TIME ( 11, 39, 59.00000000000000000, #52 ) ;
#83 = FACE_OUTER_BOUND ( 'NONE', #288, .T. ) ;
#84 = DIRECTION ( 'NONE',  ( -3.491481338843133355E-15, 1.224646799147353207E-16, -1.000000000000000000 ) ) ;
#85 = APPLICATION_PROTOCOL_DEFINITION ( 'international standard', 'config_control_design', 1994, #265 ) ;
#86 =( LENGTH_UNIT ( ) NAMED_UNIT ( * ) SI_UNIT ( .MILLI., .METRE. ) );
#87 = CIRCLE ( 'NONE', #150, 1.200000000000003286 ) ;
#88 = DIRECTION ( 'NONE',  ( -3.491481338843133355E-15, 1.224646799147353207E-16, -1.000000000000000000 ) ) ;
#89 = CARTESIAN_POINT ( 'NONE',  ( 3.142333204958820020E-14, -1.102182119232617714E-15, 9.000000000000000000 ) ) ;
#90 = CIRCLE ( 'NONE', #242, 0.4399999999999993916 ) ;
#91 = PERSON_AND_ORGANIZATION ( #134, #42 ) ;
#92 = PERSON_AND_ORGANIZATION ( #134, #42 ) ;
#93 =( GEOMETRIC_REPRESENTATION_CONTEXT ( 3 ) GLOBAL_UNCERTAINTY_ASSIGNED_CONTEXT ( ( #48 ) ) GLOBAL_UNIT_ASSIGNED_CONTEXT ( ( #86, #277, #296 ) ) REPRESENTATION_CONTEXT ( 'NONE', 'WORKASPACE' ) );
#94 = PERSON_AND_ORGANIZATION_ROLE ( 'classification_officer' ) ;
#95 = EDGE_LOOP ( 'NONE', ( #287 ) ) ;
#96 = EDGE_LOOP ( 'NONE', ( #221 ) ) ;
#97 = CC_DESIGN_DATE_AND_TIME_ASSIGNMENT ( #1, #138, ( #275 ) ) ;
#98 = EDGE_LOOP ( 'NONE', ( #189 ) ) ;
#99 = AXIS2_PLACEMENT_3D ( 'NONE', #35, #162, #291 ) ;
#100 = FACE_OUTER_BOUND ( 'NONE', #120, .T. ) ;
#101 = DIRECTION ( 'NONE',  ( -3.491481338843133355E-15, 1.224646799147353207E-16, -1.000000000000000000 ) ) ;
#102 = CARTESIAN_POINT ( 'NONE',  ( 1.326762908760390423E-13, 8.998558695971103225E-33, 38.00000000000000000 ) ) ;
#103 = AXIS2_PLACEMENT_3D ( 'NONE', #222, #245, #224 ) ;
#104 = VERTEX_POINT ( 'NONE', #246 ) ;
#105 = DIRECTION ( 'NONE',  ( 4.275831445896958607E-31, 1.000000000000000000, 1.224646799147353207E-16 ) ) ;
#106 = FACE_OUTER_BOUND ( 'NONE', #5, .T. ) ;
#107 = DIRECTION ( 'NONE',  ( -3.491481338843133355E-15, 1.224646799147353207E-16, -1.000000000000000000 ) ) ;
#108 = FACE_OUTER_BOUND ( 'NONE', #96, .T. ) ;
#109 = CC_DESIGN_PERSON_AND_ORGANIZATION_ASSIGNMENT ( #31, #116, ( #273 ) ) ;
#110 = CARTESIAN_POINT ( 'NONE',  ( 5.381555422627829803E-14, 1.499999999999995559, 15.41338732863155769 ) ) ;
#111 = AXIS2_PLACEMENT_3D ( 'NONE', #130, #88, #146 ) ;
#112 = FACE_BOUND ( 'NONE', #55, .T. ) ;
#113 = FACE_OUTER_BOUND ( 'NONE', #37, .T. ) ;
#114 = APPROVAL_DATE_TIME ( #4, #219 ) ;
#115 = AXIS2_PLACEMENT_3D ( 'NONE', #102, #199, #125 ) ;
#116 = PERSON_AND_ORGANIZATION_ROLE ( 'design_supplier' ) ;
#117 = EDGE_CURVE ( 'NONE', #251, #251, #248, .T. ) ;
#118 = SECURITY_CLASSIFICATION_LEVEL ( 'unclassified' ) ;
#119 = APPROVAL_PERSON_ORGANIZATION ( #176, #261, #283 ) ;
#120 = EDGE_LOOP ( 'NONE', ( #11 ) ) ;
#121 = ORIENTED_EDGE ( 'NONE', *, *, #230, .F. ) ;
#122 = ADVANCED_FACE ( 'NONE', ( #274, #18 ), #81, .T. ) ;
#123 = EDGE_LOOP ( 'NONE', ( #59 ) ) ;
#124 = ORIENTED_EDGE ( 'NONE', *, *, #159, .F. ) ;
#125 = DIRECTION ( 'NONE',  ( 4.275831445896958607E-31, 1.000000000000000000, 1.224646799147353207E-16 ) ) ;
#126 = CARTESIAN_POINT ( 'NONE',  ( -1.634500592564855392E-31, 5.733056329472579941E-33, -4.681395757098419316E-17 ) ) ;
#127 = CIRCLE ( 'NONE', #36, 0.3999999999999999667 ) ;
#128 = CARTESIAN_POINT ( 'NONE',  ( 3.142333204958820020E-14, 0.3999999999999988565, 9.000000000000000000 ) ) ;
#129 = FACE_OUTER_BOUND ( 'NONE', #98, .T. ) ;
#130 = CARTESIAN_POINT ( 'NONE',  ( 1.316288464743861212E-13, -4.616918432785521081E-15, 37.69999999999999574 ) ) ;
#131 = DIRECTION ( 'NONE',  ( 4.377113509970996308E-31, 1.000000000000000000, 1.232047923278983925E-16 ) ) ;
#132 = DIRECTION ( 'NONE',  ( 3.491481338843133355E-15, -1.224646799147353207E-16, 1.000000000000000000 ) ) ;
#133 = APPLICATION_PROTOCOL_DEFINITION ( 'international standard', 'config_control_design', 1994, #234 ) ;
#134 = PERSON ( 'UNSPECIFIED', 'UNSPECIFIED', 'UNSPECIFIED', ('UNSPECIFIED'), ('UNSPECIFIED'), ('UNSPECIFIED') ) ;
#135 = DATE_AND_TIME ( #212, #160 ) ;
#136 = APPROVAL_ROLE ( '' ) ;
#137 = CC_DESIGN_APPROVAL ( #240, ( #273 ) ) ;
#138 = DATE_TIME_ROLE ( 'creation_date' ) ;
#139 = APPROVAL_STATUS ( 'not_yet_approved' ) ;
#140 = PLANE ( 'NONE',  #254 ) ;
#141 = ORIENTED_EDGE ( 'NONE', *, *, #144, .T. ) ;
#142 = EDGE_LOOP ( 'NONE', ( #262 ) ) ;
#143 = ORIENTED_EDGE ( 'NONE', *, *, #173, .T. ) ;
#144 = EDGE_CURVE ( 'NONE', #253, #253, #267, .T. ) ;
#145 = DIRECTION ( 'NONE',  ( 0.0000000000000000000, 1.000000000000000000, 0.0000000000000000000 ) ) ;
#146 = DIRECTION ( 'NONE',  ( 0.0000000000000000000, 1.000000000000000000, 0.0000000000000000000 ) ) ;
#147 = PERSON_AND_ORGANIZATION_ROLE ( 'design_owner' ) ;
#148 = DIRECTION ( 'NONE',  ( 4.275831445896958607E-31, 1.000000000000000000, 1.224646799147353207E-16 ) ) ;
#149 = EDGE_CURVE ( 'NONE', #22, #22, #33, .T. ) ;
#150 = AXIS2_PLACEMENT_3D ( 'NONE', #195, #101, #145 ) ;
#151 = CONICAL_SURFACE ( 'NONE', #71, 0.4399999999999993916, 0.5235987755982925984 ) ;
#152 = DIRECTION ( 'NONE',  ( 1.000000000000000000, 0.0000000000000000000, 0.0000000000000000000 ) ) ;
#153 = DIRECTION ( 'NONE',  ( -3.491481338843133355E-15, 1.224646799147353207E-16, -1.000000000000000000 ) ) ;
#154 = DIRECTION ( 'NONE',  ( 0.0000000000000000000, 1.000000000000000000, 0.0000000000000000000 ) ) ;
#155 = CARTESIAN_POINT ( 'NONE',  ( 1.769930361711787028E-14, -6.208080014834760946E-16, 5.069282032302757202 ) ) ;
#156 = CIRCLE ( 'NONE', #289, 0.4303844939755809840 ) ;
#157 = PERSON_AND_ORGANIZATION_ROLE ( 'creator' ) ;
#158 = PRODUCT_RELATED_PRODUCT_CATEGORY ( 'detail', '', ( #175 ) ) ;
#159 = EDGE_CURVE ( 'NONE', #65, #65, #231, .T. ) ;
#160 = LOCAL_TIME ( 11, 39, 59.00000000000000000, #284 ) ;
#161 = SHAPE_DEFINITION_REPRESENTATION ( #194, #2 ) ;
#162 = DIRECTION ( 'NONE',  ( -3.491481338843133355E-15, 1.224646799147353207E-16, -1.000000000000000000 ) ) ;
#163 = DIRECTION ( 'NONE',  ( 3.491481338843133355E-15, -1.224646799147353207E-16, 1.000000000000000000 ) ) ;
#164 = AXIS2_PLACEMENT_3D ( 'NONE', #19, #63, #152 ) ;
#165 = ORIENTED_EDGE ( 'NONE', *, *, #297, .T. ) ;
#166 = FACE_OUTER_BOUND ( 'NONE', #95, .T. ) ;
#167 = ORIENTED_EDGE ( 'NONE', *, *, #204, .T. ) ;
#168 = ADVANCED_FACE ( 'NONE', ( #108 ), #64, .F. ) ;
#169 = CARTESIAN_POINT ( 'NONE',  ( 1.745740669421566678E-14, -6.123233995736766282E-16, 5.000000000000000000 ) ) ;
#170 = AXIS2_PLACEMENT_3D ( 'NONE', #126, #247, #252 ) ;
#171 = FACE_OUTER_BOUND ( 'NONE', #142, .T. ) ;
#172 = VERTEX_POINT ( 'NONE', #226 ) ;
#173 = EDGE_CURVE ( 'NONE', #299, #299, #57, .T. ) ;
#174 = CARTESIAN_POINT ( 'NONE',  ( 0.0000000000000000000, 0.0000000000000000000, 0.0000000000000000000 ) ) ;
#175 = PRODUCT ( '200766', '200766', '', ( #193 ) ) ;
#176 = PERSON_AND_ORGANIZATION ( #134, #42 ) ;
#177 = CARTESIAN_POINT ( 'NONE',  ( 1.745740669421566678E-14, -6.123233995736766282E-16, 5.000000000000000000 ) ) ;
#178 = VERTEX_POINT ( 'NONE', #206 ) ;
#179 = PERSON_AND_ORGANIZATION ( #134, #42 ) ;
#180 = AXIS2_PLACEMENT_3D ( 'NONE', #62, #295, #43 ) ;
#181 = DATE_AND_TIME ( #184, #185 ) ;
#182 = ADVANCED_FACE ( 'NONE', ( #268, #106 ), #61, .T. ) ;
#183 = ADVANCED_FACE ( 'NONE', ( #83 ), #301, .T. ) ;
#184 = CALENDAR_DATE ( 2021, 1, 12 ) ;
#185 = LOCAL_TIME ( 11, 39, 59.00000000000000000, #54 ) ;
#186 = CARTESIAN_POINT ( 'NONE',  ( 1.745740669421566678E-14, 3.299471521856077979E-33, 5.000000000000000000 ) ) ;
#187 = EDGE_LOOP ( 'NONE', ( #77 ) ) ;
#188 = APPROVAL_PERSON_ORGANIZATION ( #179, #240, #136 ) ;
#189 = ORIENTED_EDGE ( 'NONE', *, *, #117, .T. ) ;
#190 = CYLINDRICAL_SURFACE ( 'NONE', #99, 1.500000000000000444 ) ;
#191 = DIRECTION ( 'NONE',  ( 4.275831445896958607E-31, 1.000000000000000000, 1.224646799147353207E-16 ) ) ;
#192 = AXIS2_PLACEMENT_3D ( 'NONE', #279, #16, #39 ) ;
#193 = MECHANICAL_CONTEXT ( 'NONE', #234, 'mechanical' ) ;
#194 = PRODUCT_DEFINITION_SHAPE ( 'NONE', 'NONE',  #275 ) ;
#195 = CARTESIAN_POINT ( 'NONE',  ( 1.326762908760390423E-13, -4.653657836759941941E-15, 38.00000000000000000 ) ) ;
#196 = PERSON_AND_ORGANIZATION ( #134, #42 ) ;
#197 = DIRECTION ( 'NONE',  ( -3.491481338843133355E-15, 1.224646799147353207E-16, -1.000000000000000000 ) ) ;
#198 = CARTESIAN_POINT ( 'NONE',  ( 1.316288464743861212E-13, 1.499999999999998668, 37.69999999999999574 ) ) ;
#199 = DIRECTION ( 'NONE',  ( -3.491481338843133355E-15, 1.224646799147353207E-16, -1.000000000000000000 ) ) ;
#200 = AXIS2_PLACEMENT_3D ( 'NONE', #278, #68, #13 ) ;
#201 = VERTEX_POINT ( 'NONE', #280 ) ;
#202 = MANIFOLD_SOLID_BREP ( 'Corps-Déplacer/Copier1[1]', #49 ) ;
#203 = DIRECTION ( 'NONE',  ( 0.0000000000000000000, 1.000000000000000000, 0.0000000000000000000 ) ) ;
#204 = EDGE_CURVE ( 'NONE', #104, #104, #87, .T. ) ;
#205 = ADVANCED_FACE ( 'NONE', ( #171, #269 ), #25, .T. ) ;
#206 = CARTESIAN_POINT ( 'NONE',  ( 3.263591079328455776E-14, 0.4303844939755798737, 9.347296355333845952 ) ) ;
#207 = MANIFOLD_SOLID_BREP ( 'Corps-Déplacer/Copier1[2]', #215 ) ;
#208 = PERSON_AND_ORGANIZATION_ROLE ( 'creator' ) ;
#209 = AXIS2_PLACEMENT_3D ( 'NONE', #38, #294, #148 ) ;
#210 = ADVANCED_FACE ( 'NONE', ( #129 ), #225, .F. ) ;
#211 = APPROVAL_STATUS ( 'not_yet_approved' ) ;
#212 = CALENDAR_DATE ( 2021, 1, 12 ) ;
#213 = EDGE_LOOP ( 'NONE', ( #141 ) ) ;
#214 = APPROVAL_DATE_TIME ( #232, #240 ) ;
#215 = CLOSED_SHELL ( 'NONE', ( #210, #72, #122, #183 ) ) ;
#216 = LOCAL_TIME ( 11, 39, 59.00000000000000000, #282 ) ;
#217 = ORIENTED_EDGE ( 'NONE', *, *, #173, .F. ) ;
#218 = DIRECTION ( 'NONE',  ( -4.275831445896958607E-31, -1.000000000000000000, -1.224646799147353207E-16 ) ) ;
#219 = APPROVAL ( #256, 'UNSPECIFIED' ) ;
#220 = CC_DESIGN_PERSON_AND_ORGANIZATION_ASSIGNMENT ( #257, #157, ( #273 ) ) ;
#221 = ORIENTED_EDGE ( 'NONE', *, *, #204, .F. ) ;
#222 = CARTESIAN_POINT ( 'NONE',  ( 5.381555422627829803E-14, -1.887595545602700932E-15, 15.41338732863155769 ) ) ;
#223 = DIRECTION ( 'NONE',  ( 0.0000000000000000000, 1.000000000000000000, 0.0000000000000000000 ) ) ;
#224 = DIRECTION ( 'NONE',  ( 0.0000000000000000000, 1.000000000000000000, 0.0000000000000000000 ) ) ;
#225 = PLANE ( 'NONE',  #10 ) ;
#226 = CARTESIAN_POINT ( 'NONE',  ( 1.745740669421566678E-14, 0.4399999999999993916, 5.000000000000000000 ) ) ;
#227 = DIRECTION ( 'NONE',  ( 3.491481338843133355E-15, -1.224646799147353207E-16, 1.000000000000000000 ) ) ;
#228 = CARTESIAN_POINT ( 'NONE',  ( 1.745740669421566678E-14, 0.4399999999999993916, 5.000000000000000000 ) ) ;
#229 = DIRECTION ( 'NONE',  ( -4.275831445896958607E-31, -1.000000000000000000, -1.224646799147353207E-16 ) ) ;
#230 = EDGE_CURVE ( 'NONE', #178, #178, #156, .T. ) ;
#231 = CIRCLE ( 'NONE', #17, 0.4400000000000000022 ) ;
#232 = DATE_AND_TIME ( #6, #82 ) ;
#233 = AXIS2_PLACEMENT_3D ( 'NONE', #155, #45, #223 ) ;
#234 = APPLICATION_CONTEXT ( 'configuration controlled 3d designs of mechanical parts and assemblies' ) ;
#235 = COORDINATED_UNIVERSAL_TIME_OFFSET ( 1, 0, .AHEAD. ) ;
#236 = PERSON_AND_ORGANIZATION ( #134, #42 ) ;
#237 = ORIENTED_EDGE ( 'NONE', *, *, #298, .F. ) ;
#238 = TOROIDAL_SURFACE ( 'NONE', #53, 2.400000000000000355, 2.000000000000000000 ) ;
#239 = EDGE_LOOP ( 'NONE', ( #143 ) ) ;
#240 = APPROVAL ( #211, 'UNSPECIFIED' ) ;
#241 = EDGE_LOOP ( 'NONE', ( #243 ) ) ;
#242 = AXIS2_PLACEMENT_3D ( 'NONE', #24, #107, #131 ) ;
#243 = ORIENTED_EDGE ( 'NONE', *, *, #230, .T. ) ;
#244 = FACE_BOUND ( 'NONE', #34, .T. ) ;
#245 = DIRECTION ( 'NONE',  ( -3.491481338843133355E-15, 1.224646799147353207E-16, -1.000000000000000000 ) ) ;
#246 = CARTESIAN_POINT ( 'NONE',  ( 1.326762908760390423E-13, 1.199999999999998845, 38.00000000000000000 ) ) ;
#247 = DIRECTION ( 'NONE',  ( -3.491481338843133355E-15, 1.224646799147353207E-16, -1.000000000000000000 ) ) ;
#248 = CIRCLE ( 'NONE', #170, 0.3822649730810376845 ) ;
#249 = DIRECTION ( 'NONE',  ( -3.491481338843133355E-15, 1.224646799147353207E-16, -1.000000000000000000 ) ) ;
#250 = DIRECTION ( 'NONE',  ( -4.377113509970996308E-31, -1.000000000000000000, -1.232047923278983925E-16 ) ) ;
#251 = VERTEX_POINT ( 'NONE', #46 ) ;
#252 = DIRECTION ( 'NONE',  ( 4.275831445896958607E-31, 1.000000000000000000, 1.224646799147353207E-16 ) ) ;
#253 = VERTEX_POINT ( 'NONE', #270 ) ;
#254 = AXIS2_PLACEMENT_3D ( 'NONE', #186, #163, #218 ) ;
#255 = AXIS2_PLACEMENT_3D ( 'NONE', #67, #249, #272 ) ;
#256 = APPROVAL_STATUS ( 'not_yet_approved' ) ;
#257 = PERSON_AND_ORGANIZATION ( #134, #42 ) ;
#258 = ADVANCED_FACE ( 'NONE', ( #112, #70 ), #7, .T. ) ;
#259 = FACE_OUTER_BOUND ( 'NONE', #303, .T. ) ;
#260 = AXIS2_PLACEMENT_3D ( 'NONE', #177, #153, #40 ) ;
#261 = APPROVAL ( #139, 'UNSPECIFIED' ) ;
#262 = ORIENTED_EDGE ( 'NONE', *, *, #69, .F. ) ;
#263 = EDGE_LOOP ( 'NONE', ( #165 ) ) ;
#264 = DESIGN_CONTEXT ( 'detailed design', #265, 'design' ) ;
#265 = APPLICATION_CONTEXT ( 'configuration controlled 3d designs of mechanical parts and assemblies' ) ;
#266 = ORIENTED_EDGE ( 'NONE', *, *, #117, .F. ) ;
#267 = CIRCLE ( 'NONE', #233, 0.3999999999999995226 ) ;
#268 = FACE_OUTER_BOUND ( 'NONE', #123, .T. ) ;
#269 = FACE_BOUND ( 'NONE', #213, .T. ) ;
#270 = CARTESIAN_POINT ( 'NONE',  ( 1.769930361711787028E-14, 0.3999999999999989120, 5.069282032302757202 ) ) ;
#271 = DIRECTION ( 'NONE',  ( -3.491481338843133355E-15, 1.224646799147353207E-16, -1.000000000000000000 ) ) ;
#272 = DIRECTION ( 'NONE',  ( 0.0000000000000000000, 1.000000000000000000, 0.0000000000000000000 ) ) ;
#273 = PRODUCT_DEFINITION_FORMATION_WITH_SPECIFIED_SOURCE ( 'ANY', '', #175, .NOT_KNOWN. ) ;
#274 = FACE_OUTER_BOUND ( 'NONE', #285, .T. ) ;
#275 = PRODUCT_DEFINITION ( 'UNKNOWN', '', #273, #264 ) ;
#276 = ADVANCED_FACE ( 'NONE', ( #113, #302 ), #66, .T. ) ;
#277 =( NAMED_UNIT ( * ) PLANE_ANGLE_UNIT ( ) SI_UNIT ( $, .RADIAN. ) );
#278 = CARTESIAN_POINT ( 'NONE',  ( 1.745740669421566678E-14, 3.299471521856077979E-33, 5.000000000000000000 ) ) ;
#279 = CARTESIAN_POINT ( 'NONE',  ( 5.381555422627829803E-14, -1.887595545602700932E-15, 15.41338732863155769 ) ) ;
#280 = CARTESIAN_POINT ( 'NONE',  ( 3.491481338843134341E-16, 0.4399999999999993916, 0.1000000000000000194 ) ) ;
#281 = CC_DESIGN_SECURITY_CLASSIFICATION ( #60, ( #273 ) ) ;
#282 = COORDINATED_UNIVERSAL_TIME_OFFSET ( 1, 0, .AHEAD. ) ;
#283 = APPROVAL_ROLE ( '' ) ;
#284 = COORDINATED_UNIVERSAL_TIME_OFFSET ( 1, 0, .AHEAD. ) ;
#285 = EDGE_LOOP ( 'NONE', ( #9 ) ) ;
#286 = CALENDAR_DATE ( 2021, 1, 12 ) ;
#287 = ORIENTED_EDGE ( 'NONE', *, *, #149, .T. ) ;
#288 = EDGE_LOOP ( 'NONE', ( #124 ) ) ;
#289 = AXIS2_PLACEMENT_3D ( 'NONE', #47, #26, #203 ) ;
#290 = FACE_OUTER_BOUND ( 'NONE', #76, .T. ) ;
#291 = DIRECTION ( 'NONE',  ( 4.275831445896958607E-31, 1.000000000000000000, 1.224646799147353207E-16 ) ) ;
#292 = CARTESIAN_POINT ( 'NONE',  ( 3.491481338843132369E-16, -1.224646799147352807E-17, 0.09999999999999996392 ) ) ;
#293 = CC_DESIGN_APPROVAL ( #219, ( #60 ) ) ;
#294 = DIRECTION ( 'NONE',  ( -3.491481338843133355E-15, 1.224646799147353207E-16, -1.000000000000000000 ) ) ;
#295 = DIRECTION ( 'NONE',  ( -3.491481338843133355E-15, 1.224646799147353207E-16, -1.000000000000000000 ) ) ;
#296 =( NAMED_UNIT ( * ) SI_UNIT ( $, .STERADIAN. ) SOLID_ANGLE_UNIT ( ) );
#297 = EDGE_CURVE ( 'NONE', #201, #201, #90, .T. ) ;
#298 = EDGE_CURVE ( 'NONE', #41, #41, #127, .T. ) ;
#299 = VERTEX_POINT ( 'NONE', #110 ) ;
#300 = LOCAL_TIME ( 11, 39, 59.00000000000000000, #235 ) ;
#301 = PLANE ( 'NONE',  #200 ) ;
#302 = FACE_BOUND ( 'NONE', #79, .T. ) ;
#303 = EDGE_LOOP ( 'NONE', ( #237 ) ) ;
ENDSEC;
END-ISO-10303-21;
