ISO-10303-21;
HEADER;
FILE_DESCRIPTION (( 'STEP AP203' ),
    '1' );
FILE_NAME ('200765.step',
    '2021-12-01T10:39:58',
    ( '' ),
    ( '' ),
    'SwSTEP 2.0',
    'SolidWorks 2019',
    '' );
FILE_SCHEMA (( 'CONFIG_CONTROL_DESIGN' ));
ENDSEC;

DATA;
#1 = EDGE_LOOP ( 'NONE', ( #184 ) ) ;
#2 = CC_DESIGN_PERSON_AND_ORGANIZATION_ASSIGNMENT ( #292, #179, ( #186 ) ) ;
#3 = EDGE_LOOP ( 'NONE', ( #4 ) ) ;
#4 = ORIENTED_EDGE ( 'NONE', *, *, #220, .T. ) ;
#5 = CARTESIAN_POINT ( 'NONE',  ( 1.316288464743861212E-13, 1.499999999999998668, 37.69999999999999574 ) ) ;
#6 = DIRECTION ( 'NONE',  ( 0.0000000000000000000, 1.000000000000000000, 0.0000000000000000000 ) ) ;
#7 = PERSON_AND_ORGANIZATION_ROLE ( 'design_owner' ) ;
#8 = CARTESIAN_POINT ( 'NONE',  ( 1.326762908760390423E-13, -4.653657836759941941E-15, 38.00000000000000000 ) ) ;
#9 = DIRECTION ( 'NONE',  ( -3.491481338843133355E-15, 1.224646799147353207E-16, -1.000000000000000000 ) ) ;
#10 = CARTESIAN_POINT ( 'NONE',  ( 3.491481338843132369E-16, -1.224646799147352807E-17, 0.09999999999999996392 ) ) ;
#11 = CARTESIAN_POINT ( 'NONE',  ( 0.0000000000000000000, 0.0000000000000000000, 0.0000000000000000000 ) ) ;
#12 = DIRECTION ( 'NONE',  ( -4.275831445896958607E-31, -1.000000000000000000, -1.224646799147353207E-16 ) ) ;
#13 = ADVANCED_FACE ( 'NONE', ( #215 ), #166, .F. ) ;
#14 = ADVANCED_FACE ( 'NONE', ( #257 ), #254, .T. ) ;
#15 = VERTEX_POINT ( 'NONE', #5 ) ;
#16 = DIRECTION ( 'NONE',  ( -3.491481338843133355E-15, 1.224646799147353207E-16, -1.000000000000000000 ) ) ;
#17 =( GEOMETRIC_REPRESENTATION_CONTEXT ( 3 ) GLOBAL_UNCERTAINTY_ASSIGNED_CONTEXT ( ( #47 ) ) GLOBAL_UNIT_ASSIGNED_CONTEXT ( ( #272, #241, #172 ) ) REPRESENTATION_CONTEXT ( 'NONE', 'WORKASPACE' ) );
#18 = APPROVAL_PERSON_ORGANIZATION ( #92, #187, #227 ) ;
#19 = ADVANCED_FACE ( 'NONE', ( #114, #54 ), #261, .T. ) ;
#20 = CALENDAR_DATE ( 2021, 1, 12 ) ;
#21 = CIRCLE ( 'NONE', #301, 0.4053844939755807397 ) ;
#22 = EDGE_LOOP ( 'NONE', ( #97 ) ) ;
#23 = AXIS2_PLACEMENT_3D ( 'NONE', #8, #87, #240 ) ;
#24 = CC_DESIGN_APPROVAL ( #187, ( #82 ) ) ;
#25 = ORIENTED_EDGE ( 'NONE', *, *, #141, .F. ) ;
#26 = CC_DESIGN_PERSON_AND_ORGANIZATION_ASSIGNMENT ( #216, #7, ( #101 ) ) ;
#27 = EDGE_CURVE ( 'NONE', #104, #104, #75, .T. ) ;
#28 = DIRECTION ( 'NONE',  ( -4.275831445896958607E-31, -1.000000000000000000, -1.224646799147353207E-16 ) ) ;
#29 = ORIENTED_EDGE ( 'NONE', *, *, #27, .F. ) ;
#30 = AXIS2_PLACEMENT_3D ( 'NONE', #199, #245, #151 ) ;
#31 = CARTESIAN_POINT ( 'NONE',  ( 1.326762908760390423E-13, 1.199999999999998845, 38.00000000000000000 ) ) ;
#32 = EDGE_LOOP ( 'NONE', ( #25 ) ) ;
#33 = VERTEX_POINT ( 'NONE', #60 ) ;
#34 = PLANE ( 'NONE',  #190 ) ;
#35 = VERTEX_POINT ( 'NONE', #56 ) ;
#36 = DIRECTION ( 'NONE',  ( 4.275831445896958607E-31, 1.000000000000000000, 1.224646799147353207E-16 ) ) ;
#37 = APPLICATION_PROTOCOL_DEFINITION ( 'international standard', 'config_control_design', 1994, #183 ) ;
#38 = DIRECTION ( 'NONE',  ( 0.0000000000000000000, 1.000000000000000000, 0.0000000000000000000 ) ) ;
#39 = AXIS2_PLACEMENT_3D ( 'NONE', #83, #106, #149 ) ;
#40 = EDGE_CURVE ( 'NONE', #35, #35, #21, .T. ) ;
#41 = APPROVAL_ROLE ( '' ) ;
#42 = FACE_OUTER_BOUND ( 'NONE', #71, .T. ) ;
#43 = DIRECTION ( 'NONE',  ( 4.275831445896958607E-31, 1.000000000000000000, 1.224646799147353207E-16 ) ) ;
#44 = CONICAL_SURFACE ( 'NONE', #243, 0.3749999999999995004, 0.5235987755982954850 ) ;
#45 = PERSON_AND_ORGANIZATION ( #247, #249 ) ;
#46 = APPROVAL_DATE_TIME ( #133, #276 ) ;
#47 = UNCERTAINTY_MEASURE_WITH_UNIT (LENGTH_MEASURE( 1.000000000000000082E-05 ), #272, 'distance_accuracy_value', 'NONE');
#48 = AXIS2_PLACEMENT_3D ( 'NONE', #77, #111, #258 ) ;
#49 = LOCAL_TIME ( 11, 39, 58.00000000000000000, #134 ) ;
#50 = APPLICATION_CONTEXT ( 'configuration controlled 3d designs of mechanical parts and assemblies' ) ;
#51 = ORIENTED_EDGE ( 'NONE', *, *, #68, .T. ) ;
#52 = EDGE_LOOP ( 'NONE', ( #51 ) ) ;
#53 = AXIS2_PLACEMENT_3D ( 'NONE', #168, #275, #65 ) ;
#54 = FACE_OUTER_BOUND ( 'NONE', #189, .T. ) ;
#55 = CARTESIAN_POINT ( 'NONE',  ( 0.0000000000000000000, 0.0000000000000000000, 0.0000000000000000000 ) ) ;
#56 = CARTESIAN_POINT ( 'NONE',  ( 3.263591079328455776E-14, 0.4053844939755795740, 9.347296355333845952 ) ) ;
#57 = DIRECTION ( 'NONE',  ( 0.0000000000000000000, 1.000000000000000000, 0.0000000000000000000 ) ) ;
#58 = LOCAL_TIME ( 11, 39, 58.00000000000000000, #297 ) ;
#59 = CARTESIAN_POINT ( 'NONE',  ( 1.326762908760390423E-13, 8.998558695971103225E-33, 38.00000000000000000 ) ) ;
#60 = CARTESIAN_POINT ( 'NONE',  ( 5.431058359229120707E-14, 1.499999999999995559, 15.55516937412200740 ) ) ;
#61 = FACE_OUTER_BOUND ( 'NONE', #284, .T. ) ;
#62 = DIRECTION ( 'NONE',  ( 4.275831445896958607E-31, 1.000000000000000000, 1.224646799147353207E-16 ) ) ;
#63 = APPROVAL ( #244, 'UNSPECIFIED' ) ;
#64 = FACE_OUTER_BOUND ( 'NONE', #255, .T. ) ;
#65 = DIRECTION ( 'NONE',  ( 0.0000000000000000000, 1.000000000000000000, 0.0000000000000000000 ) ) ;
#66 = CIRCLE ( 'NONE', #278, 0.3522649730810376578 ) ;
#67 = CC_DESIGN_APPROVAL ( #276, ( #302 ) ) ;
#68 = EDGE_CURVE ( 'NONE', #286, #286, #118, .T. ) ;
#69 = ADVANCED_FACE ( 'NONE', ( #107, #174 ), #113, .T. ) ;
#70 = DESIGN_CONTEXT ( 'detailed design', #50, 'design' ) ;
#71 = EDGE_LOOP ( 'NONE', ( #98 ) ) ;
#72 = EDGE_CURVE ( 'NONE', #235, #235, #153, .T. ) ;
#73 = EDGE_LOOP ( 'NONE', ( #233 ) ) ;
#74 = ORIENTED_EDGE ( 'NONE', *, *, #40, .F. ) ;
#75 = CIRCLE ( 'NONE', #112, 0.4099999999999999756 ) ;
#76 = EDGE_LOOP ( 'NONE', ( #230 ) ) ;
#77 = CARTESIAN_POINT ( 'NONE',  ( 1.745740669421566678E-14, 3.074507554456799064E-33, 5.000000000000000000 ) ) ;
#78 = CARTESIAN_POINT ( 'NONE',  ( 1.766906650175509523E-14, 0.3749999999999989453, 5.060621778264912329 ) ) ;
#79 = CARTESIAN_POINT ( 'NONE',  ( -1.506225649187946450E-31, 5.283128394674021427E-33, -4.314001717354212934E-17 ) ) ;
#80 = AXIS2_PLACEMENT_3D ( 'NONE', #242, #131, #193 ) ;
#81 = FACE_OUTER_BOUND ( 'NONE', #52, .T. ) ;
#82 = SECURITY_CLASSIFICATION ( '', '', #150 ) ;
#83 = CARTESIAN_POINT ( 'NONE',  ( 3.142333204958820020E-14, -1.301042606982605321E-15, 9.000000000000000000 ) ) ;
#84 = APPLICATION_PROTOCOL_DEFINITION ( 'international standard', 'config_control_design', 1994, #50 ) ;
#85 = FACE_OUTER_BOUND ( 'NONE', #138, .T. ) ;
#86 = DATE_AND_TIME ( #274, #58 ) ;
#87 = DIRECTION ( 'NONE',  ( -3.491481338843133355E-15, 1.224646799147353207E-16, -1.000000000000000000 ) ) ;
#88 = CLOSED_SHELL ( 'NONE', ( #252, #299, #19, #162, #298, #116, #69, #259 ) ) ;
#89 = MANIFOLD_SOLID_BREP ( 'Corps-Déplacer/Copier1[2]', #93 ) ;
#90 = PERSON_AND_ORGANIZATION ( #247, #249 ) ;
#91 = PERSON_AND_ORGANIZATION_ROLE ( 'creator' ) ;
#92 = PERSON_AND_ORGANIZATION ( #247, #249 ) ;
#93 = CLOSED_SHELL ( 'NONE', ( #13, #277, #204, #14 ) ) ;
#94 = CALENDAR_DATE ( 2021, 1, 12 ) ;
#95 = AXIS2_PLACEMENT_3D ( 'NONE', #238, #178, #38 ) ;
#96 = EDGE_LOOP ( 'NONE', ( #145 ) ) ;
#97 = ORIENTED_EDGE ( 'NONE', *, *, #141, .T. ) ;
#98 = ORIENTED_EDGE ( 'NONE', *, *, #228, .T. ) ;
#99 = AXIS2_PLACEMENT_3D ( 'NONE', #289, #201, #125 ) ;
#100 = CARTESIAN_POINT ( 'NONE',  ( 1.745740669421566678E-14, -6.123233995736766282E-16, 5.000000000000000000 ) ) ;
#101 = PRODUCT ( '200765', '200765', '', ( #148 ) ) ;
#102 = CARTESIAN_POINT ( 'NONE',  ( 1.326762908760390423E-13, -4.653657836759941941E-15, 38.00000000000000000 ) ) ;
#103 = DIRECTION ( 'NONE',  ( -3.491481338843133355E-15, 1.224646799147353207E-16, -1.000000000000000000 ) ) ;
#104 = VERTEX_POINT ( 'NONE', #260 ) ;
#105 = CARTESIAN_POINT ( 'NONE',  ( 0.0000000000000000000, 0.0000000000000000000, 0.0000000000000000000 ) ) ;
#106 = DIRECTION ( 'NONE',  ( -3.491481338843133355E-15, 1.224646799147353207E-16, -1.000000000000000000 ) ) ;
#107 = FACE_OUTER_BOUND ( 'NONE', #206, .T. ) ;
#108 = PERSON_AND_ORGANIZATION ( #247, #249 ) ;
#109 = PERSON_AND_ORGANIZATION_ROLE ( 'classification_officer' ) ;
#110 = AXIS2_PLACEMENT_3D ( 'NONE', #10, #197, #129 ) ;
#111 = DIRECTION ( 'NONE',  ( 3.491481338843133355E-15, -1.224646799147353207E-16, 1.000000000000000000 ) ) ;
#112 = AXIS2_PLACEMENT_3D ( 'NONE', #100, #192, #57 ) ;
#113 = CONICAL_SURFACE ( 'NONE', #288, 1.200000000000003286, 0.7853981633974453924 ) ;
#114 = FACE_OUTER_BOUND ( 'NONE', #76, .T. ) ;
#115 = EDGE_LOOP ( 'NONE', ( #209 ) ) ;
#116 = ADVANCED_FACE ( 'NONE', ( #224, #85 ), #293, .T. ) ;
#117 = DIRECTION ( 'NONE',  ( -3.491481338843133355E-15, 1.224646799147353207E-16, -1.000000000000000000 ) ) ;
#118 = CIRCLE ( 'NONE', #30, 0.4099999999999994205 ) ;
#119 = VERTEX_POINT ( 'NONE', #78 ) ;
#120 = DIRECTION ( 'NONE',  ( -3.491481338843133355E-15, 1.224646799147353207E-16, -1.000000000000000000 ) ) ;
#121 = DIRECTION ( 'NONE',  ( 1.000000000000000000, 0.0000000000000000000, 0.0000000000000000000 ) ) ;
#122 = CARTESIAN_POINT ( 'NONE',  ( 5.431058359229120707E-14, -1.904958838421345270E-15, 15.55516937412200740 ) ) ;
#123 = CC_DESIGN_PERSON_AND_ORGANIZATION_ASSIGNMENT ( #248, #91, ( #302 ) ) ;
#124 = FACE_OUTER_BOUND ( 'NONE', #115, .T. ) ;
#125 = DIRECTION ( 'NONE',  ( 4.275831445896958607E-31, 1.000000000000000000, 1.224646799147353207E-16 ) ) ;
#126 = CONICAL_SURFACE ( 'NONE', #282, 1.499999999999997335, 0.1745329251994261477 ) ;
#127 = DIRECTION ( 'NONE',  ( 0.0000000000000000000, 1.000000000000000000, 0.0000000000000000000 ) ) ;
#128 = CALENDAR_DATE ( 2021, 1, 12 ) ;
#129 = DIRECTION ( 'NONE',  ( -4.697390108261557825E-31, -1.000000000000000000, -1.322197771323787855E-16 ) ) ;
#130 = COORDINATED_UNIVERSAL_TIME_OFFSET ( 1, 0, .AHEAD. ) ;
#131 = DIRECTION ( 'NONE',  ( -3.491481338843133355E-15, 1.224646799147353207E-16, -1.000000000000000000 ) ) ;
#132 = CONICAL_SURFACE ( 'NONE', #110, 0.4099999999999994205, 0.5235987755982925984 ) ;
#133 = DATE_AND_TIME ( #94, #191 ) ;
#134 = COORDINATED_UNIVERSAL_TIME_OFFSET ( 1, 0, .AHEAD. ) ;
#135 = CALENDAR_DATE ( 2021, 1, 12 ) ;
#136 = AXIS2_PLACEMENT_3D ( 'NONE', #105, #16, #36 ) ;
#137 = EDGE_LOOP ( 'NONE', ( #29 ) ) ;
#138 = EDGE_LOOP ( 'NONE', ( #161 ) ) ;
#139 = AXIS2_PLACEMENT_3D ( 'NONE', #59, #195, #43 ) ;
#140 = PRODUCT_DEFINITION_SHAPE ( 'NONE', 'NONE',  #186 ) ;
#141 = EDGE_CURVE ( 'NONE', #33, #33, #229, .T. ) ;
#142 = DIRECTION ( 'NONE',  ( 4.275831445896958607E-31, 1.000000000000000000, 1.224646799147353454E-16 ) ) ;
#143 = FACE_OUTER_BOUND ( 'NONE', #22, .T. ) ;
#144 = CARTESIAN_POINT ( 'NONE',  ( 3.491481338843134341E-16, 0.4099999999999994205, 0.1000000000000000194 ) ) ;
#145 = ORIENTED_EDGE ( 'NONE', *, *, #27, .T. ) ;
#146 = DIRECTION ( 'NONE',  ( -3.491481338843133355E-15, 1.224646799147353207E-16, -1.000000000000000000 ) ) ;
#147 = FACE_OUTER_BOUND ( 'NONE', #283, .T. ) ;
#148 = MECHANICAL_CONTEXT ( 'NONE', #183, 'mechanical' ) ;
#149 = DIRECTION ( 'NONE',  ( 4.275831445896958607E-31, 1.000000000000000000, 1.224646799147353207E-16 ) ) ;
#150 = SECURITY_CLASSIFICATION_LEVEL ( 'unclassified' ) ;
#151 = DIRECTION ( 'NONE',  ( 4.697390108261557825E-31, 1.000000000000000000, 1.322197771323787855E-16 ) ) ;
#152 = APPROVAL_ROLE ( '' ) ;
#153 = CIRCLE ( 'NONE', #23, 1.200000000000003286 ) ;
#154 = EDGE_CURVE ( 'NONE', #267, #267, #66, .T. ) ;
#155 = APPROVAL_STATUS ( 'not_yet_approved' ) ;
#156 = PERSON_AND_ORGANIZATION_ROLE ( 'design_supplier' ) ;
#157 = AXIS2_PLACEMENT_3D ( 'NONE', #263, #146, #127 ) ;
#158 = ORIENTED_EDGE ( 'NONE', *, *, #72, .T. ) ;
#159 = ORIENTED_EDGE ( 'NONE', *, *, #72, .F. ) ;
#160 = CC_DESIGN_DATE_AND_TIME_ASSIGNMENT ( #225, #203, ( #82 ) ) ;
#161 = ORIENTED_EDGE ( 'NONE', *, *, #175, .T. ) ;
#162 = ADVANCED_FACE ( 'NONE', ( #171, #64 ), #163, .F. ) ;
#163 = TOROIDAL_SURFACE ( 'NONE', #39, 2.375000000000000444, 2.000000000000000444 ) ;
#164 = ORIENTED_EDGE ( 'NONE', *, *, #175, .F. ) ;
#165 = CARTESIAN_POINT ( 'NONE',  ( 5.431058359229120707E-14, -1.904958838421345270E-15, 15.55516937412200740 ) ) ;
#166 = PLANE ( 'NONE',  #207 ) ;
#167 = DIRECTION ( 'NONE',  ( 0.0000000000000000000, 0.0000000000000000000, 1.000000000000000000 ) ) ;
#168 = CARTESIAN_POINT ( 'NONE',  ( 1.745740669421566678E-14, -6.123233995736766282E-16, 5.000000000000000000 ) ) ;
#169 = APPROVAL_PERSON_ORGANIZATION ( #45, #276, #152 ) ;
#170 = COORDINATED_UNIVERSAL_TIME_OFFSET ( 1, 0, .AHEAD. ) ;
#171 = FACE_OUTER_BOUND ( 'NONE', #73, .T. ) ;
#172 =( NAMED_UNIT ( * ) SI_UNIT ( $, .STERADIAN. ) SOLID_ANGLE_UNIT ( ) );
#173 = PERSON_AND_ORGANIZATION ( #247, #249 ) ;
#174 = FACE_BOUND ( 'NONE', #232, .T. ) ;
#175 = EDGE_CURVE ( 'NONE', #15, #15, #253, .T. ) ;
#176 = LOCAL_TIME ( 11, 39, 58.00000000000000000, #170 ) ;
#177 = APPROVAL_DATE_TIME ( #226, #187 ) ;
#178 = DIRECTION ( 'NONE',  ( -3.491481338843133355E-15, 1.224646799147353207E-16, -1.000000000000000000 ) ) ;
#179 = PERSON_AND_ORGANIZATION_ROLE ( 'creator' ) ;
#180 = CC_DESIGN_DATE_AND_TIME_ASSIGNMENT ( #86, #251, ( #186 ) ) ;
#181 = SHAPE_DEFINITION_REPRESENTATION ( #140, #269 ) ;
#182 = APPROVAL_PERSON_ORGANIZATION ( #173, #63, #41 ) ;
#183 = APPLICATION_CONTEXT ( 'configuration controlled 3d designs of mechanical parts and assemblies' ) ;
#184 = ORIENTED_EDGE ( 'NONE', *, *, #154, .F. ) ;
#185 = AXIS2_PLACEMENT_3D ( 'NONE', #11, #167, #121 ) ;
#186 = PRODUCT_DEFINITION ( 'UNKNOWN', '', #302, #70 ) ;
#187 = APPROVAL ( #155, 'UNSPECIFIED' ) ;
#188 = DIRECTION ( 'NONE',  ( 3.491481338843133355E-15, -1.224646799147353207E-16, 1.000000000000000000 ) ) ;
#189 = EDGE_LOOP ( 'NONE', ( #234 ) ) ;
#190 = AXIS2_PLACEMENT_3D ( 'NONE', #268, #246, #12 ) ;
#191 = LOCAL_TIME ( 11, 39, 58.00000000000000000, #130 ) ;
#192 = DIRECTION ( 'NONE',  ( -3.491481338843133355E-15, 1.224646799147353207E-16, -1.000000000000000000 ) ) ;
#193 = DIRECTION ( 'NONE',  ( 0.0000000000000000000, 1.000000000000000000, 0.0000000000000000000 ) ) ;
#194 = DIRECTION ( 'NONE',  ( 3.491481338843133355E-15, -1.224646799147353207E-16, 1.000000000000000000 ) ) ;
#195 = DIRECTION ( 'NONE',  ( -3.491481338843133355E-15, 1.224646799147353207E-16, -1.000000000000000000 ) ) ;
#196 = CARTESIAN_POINT ( 'NONE',  ( 1.766906650175509523E-14, -6.197474262447511490E-16, 5.060621778264912329 ) ) ;
#197 = DIRECTION ( 'NONE',  ( 3.491481338843133355E-15, -1.224646799147353207E-16, 1.000000000000000000 ) ) ;
#198 = VERTEX_POINT ( 'NONE', #262 ) ;
#199 = CARTESIAN_POINT ( 'NONE',  ( 3.491481338843132369E-16, -1.224646799147352807E-17, 0.09999999999999996392 ) ) ;
#200 = APPROVAL_DATE_TIME ( #223, #63 ) ;
#201 = DIRECTION ( 'NONE',  ( -3.491481338843133355E-15, 1.224646799147353207E-16, -1.000000000000000000 ) ) ;
#202 = AXIS2_PLACEMENT_3D ( 'NONE', #122, #291, #273 ) ;
#203 = DATE_TIME_ROLE ( 'classification_date' ) ;
#204 = ADVANCED_FACE ( 'NONE', ( #61, #285 ), #218, .T. ) ;
#205 = EDGE_CURVE ( 'NONE', #198, #198, #294, .T. ) ;
#206 = EDGE_LOOP ( 'NONE', ( #164 ) ) ;
#207 = AXIS2_PLACEMENT_3D ( 'NONE', #212, #188, #28 ) ;
#208 = PRODUCT_RELATED_PRODUCT_CATEGORY ( 'detail', '', ( #101 ) ) ;
#209 = ORIENTED_EDGE ( 'NONE', *, *, #228, .F. ) ;
#210 = FACE_BOUND ( 'NONE', #303, .T. ) ;
#211 = EDGE_LOOP ( 'NONE', ( #281 ) ) ;
#212 = CARTESIAN_POINT ( 'NONE',  ( -7.531128245939732250E-32, 2.641564197337010714E-33, -2.157000858677106467E-17 ) ) ;
#213 = AXIS2_PLACEMENT_3D ( 'NONE', #55, #117, #142 ) ;
#214 = DIRECTION ( 'NONE',  ( 0.0000000000000000000, 1.000000000000000000, 0.0000000000000000000 ) ) ;
#215 = FACE_OUTER_BOUND ( 'NONE', #211, .T. ) ;
#216 = PERSON_AND_ORGANIZATION ( #247, #249 ) ;
#217 = DIRECTION ( 'NONE',  ( 0.0000000000000000000, 1.000000000000000000, 0.0000000000000000000 ) ) ;
#218 = CYLINDRICAL_SURFACE ( 'NONE', #136, 0.4099999999999996425 ) ;
#219 = CC_DESIGN_PERSON_AND_ORGANIZATION_ASSIGNMENT ( #90, #109, ( #82 ) ) ;
#220 = EDGE_CURVE ( 'NONE', #119, #119, #256, .T. ) ;
#221 = DIRECTION ( 'NONE',  ( 0.0000000000000000000, -1.000000000000000000, 0.0000000000000000000 ) ) ;
#222 = PLANE ( 'NONE',  #139 ) ;
#223 = DATE_AND_TIME ( #128, #176 ) ;
#224 = FACE_OUTER_BOUND ( 'NONE', #32, .T. ) ;
#225 = DATE_AND_TIME ( #20, #49 ) ;
#226 = DATE_AND_TIME ( #135, #250 ) ;
#227 = APPROVAL_ROLE ( '' ) ;
#228 = EDGE_CURVE ( 'NONE', #290, #290, #231, .T. ) ;
#229 = CIRCLE ( 'NONE', #202, 1.499999999999997335 ) ;
#230 = ORIENTED_EDGE ( 'NONE', *, *, #220, .F. ) ;
#231 = CIRCLE ( 'NONE', #53, 0.4099999999999999756 ) ;
#232 = EDGE_LOOP ( 'NONE', ( #158 ) ) ;
#233 = ORIENTED_EDGE ( 'NONE', *, *, #205, .F. ) ;
#234 = ORIENTED_EDGE ( 'NONE', *, *, #205, .T. ) ;
#235 = VERTEX_POINT ( 'NONE', #31 ) ;
#236 = CARTESIAN_POINT ( 'NONE',  ( 3.263591079328455776E-14, -1.144713656224131427E-15, 9.347296355333845952 ) ) ;
#237 = FACE_BOUND ( 'NONE', #3, .T. ) ;
#238 = CARTESIAN_POINT ( 'NONE',  ( 1.766906650175509523E-14, -6.197474262447511490E-16, 5.060621778264912329 ) ) ;
#239 = CARTESIAN_POINT ( 'NONE',  ( 0.0000000000000000000, 0.3522649730810376578, 0.0000000000000000000 ) ) ;
#240 = DIRECTION ( 'NONE',  ( 0.0000000000000000000, 1.000000000000000000, 0.0000000000000000000 ) ) ;
#241 =( NAMED_UNIT ( * ) PLANE_ANGLE_UNIT ( ) SI_UNIT ( $, .RADIAN. ) );
#242 = CARTESIAN_POINT ( 'NONE',  ( 1.316288464743861212E-13, -4.616918432785521081E-15, 37.69999999999999574 ) ) ;
#243 = AXIS2_PLACEMENT_3D ( 'NONE', #196, #9, #214 ) ;
#244 = APPROVAL_STATUS ( 'not_yet_approved' ) ;
#245 = DIRECTION ( 'NONE',  ( -3.491481338843133355E-15, 1.224646799147353207E-16, -1.000000000000000000 ) ) ;
#246 = DIRECTION ( 'NONE',  ( 3.491481338843133355E-15, -1.224646799147353207E-16, 1.000000000000000000 ) ) ;
#247 = PERSON ( 'UNSPECIFIED', 'UNSPECIFIED', 'UNSPECIFIED', ('UNSPECIFIED'), ('UNSPECIFIED'), ('UNSPECIFIED') ) ;
#248 = PERSON_AND_ORGANIZATION ( #247, #249 ) ;
#249 = ORGANIZATION ( 'UNSPECIFIED', 'UNSPECIFIED', '' ) ;
#250 = LOCAL_TIME ( 11, 39, 58.00000000000000000, #300 ) ;
#251 = DATE_TIME_ROLE ( 'creation_date' ) ;
#252 = ADVANCED_FACE ( 'NONE', ( #42 ), #34, .F. ) ;
#253 = CIRCLE ( 'NONE', #80, 1.500000000000003331 ) ;
#254 = PLANE ( 'NONE',  #48 ) ;
#255 = EDGE_LOOP ( 'NONE', ( #280 ) ) ;
#256 = CIRCLE ( 'NONE', #95, 0.3749999999999995004 ) ;
#257 = FACE_OUTER_BOUND ( 'NONE', #137, .T. ) ;
#258 = DIRECTION ( 'NONE',  ( -4.275831445896958607E-31, -1.000000000000000000, -1.224646799147353207E-16 ) ) ;
#259 = ADVANCED_FACE ( 'NONE', ( #147 ), #222, .F. ) ;
#260 = CARTESIAN_POINT ( 'NONE',  ( 1.745740669421566678E-14, 0.4099999999999994205, 5.000000000000000000 ) ) ;
#261 = CYLINDRICAL_SURFACE ( 'NONE', #213, 0.3749999999999997780 ) ;
#262 = CARTESIAN_POINT ( 'NONE',  ( 3.142333204958820020E-14, 0.3749999999999990563, 9.000000000000000000 ) ) ;
#263 = CARTESIAN_POINT ( 'NONE',  ( 3.142333204958820020E-14, -1.102182119232617714E-15, 9.000000000000000000 ) ) ;
#264 = CC_DESIGN_APPROVAL ( #63, ( #186 ) ) ;
#265 = CC_DESIGN_SECURITY_CLASSIFICATION ( #82, ( #302 ) ) ;
#266 = CC_DESIGN_PERSON_AND_ORGANIZATION_ASSIGNMENT ( #108, #156, ( #302 ) ) ;
#267 = VERTEX_POINT ( 'NONE', #239 ) ;
#268 = CARTESIAN_POINT ( 'NONE',  ( 1.745740669421566678E-14, 3.074507554456799064E-33, 5.000000000000000000 ) ) ;
#269 = ADVANCED_BREP_SHAPE_REPRESENTATION ( '200765', ( #295, #89, #185 ), #17 ) ;
#270 = CARTESIAN_POINT ( 'NONE',  ( 1.745740669421566678E-14, 0.4099999999999994205, 5.000000000000000000 ) ) ;
#271 = DIRECTION ( 'NONE',  ( -3.491481338843133355E-15, 1.224646799147353207E-16, -1.000000000000000000 ) ) ;
#272 =( LENGTH_UNIT ( ) NAMED_UNIT ( * ) SI_UNIT ( .MILLI., .METRE. ) );
#273 = DIRECTION ( 'NONE',  ( 0.0000000000000000000, 1.000000000000000000, 0.0000000000000000000 ) ) ;
#274 = CALENDAR_DATE ( 2021, 1, 12 ) ;
#275 = DIRECTION ( 'NONE',  ( -3.491481338843133355E-15, 1.224646799147353207E-16, -1.000000000000000000 ) ) ;
#276 = APPROVAL ( #296, 'UNSPECIFIED' ) ;
#277 = ADVANCED_FACE ( 'NONE', ( #287, #81 ), #132, .T. ) ;
#278 = AXIS2_PLACEMENT_3D ( 'NONE', #79, #103, #62 ) ;
#279 = ORIENTED_EDGE ( 'NONE', *, *, #68, .F. ) ;
#280 = ORIENTED_EDGE ( 'NONE', *, *, #40, .T. ) ;
#281 = ORIENTED_EDGE ( 'NONE', *, *, #154, .T. ) ;
#282 = AXIS2_PLACEMENT_3D ( 'NONE', #165, #194, #221 ) ;
#283 = EDGE_LOOP ( 'NONE', ( #159 ) ) ;
#284 = EDGE_LOOP ( 'NONE', ( #279 ) ) ;
#285 = FACE_OUTER_BOUND ( 'NONE', #96, .T. ) ;
#286 = VERTEX_POINT ( 'NONE', #144 ) ;
#287 = FACE_BOUND ( 'NONE', #1, .T. ) ;
#288 = AXIS2_PLACEMENT_3D ( 'NONE', #102, #271, #217 ) ;
#289 = CARTESIAN_POINT ( 'NONE',  ( 0.0000000000000000000, 0.0000000000000000000, 0.0000000000000000000 ) ) ;
#290 = VERTEX_POINT ( 'NONE', #270 ) ;
#291 = DIRECTION ( 'NONE',  ( -3.491481338843133355E-15, 1.224646799147353207E-16, -1.000000000000000000 ) ) ;
#292 = PERSON_AND_ORGANIZATION ( #247, #249 ) ;
#293 = CYLINDRICAL_SURFACE ( 'NONE', #99, 1.500000000000000444 ) ;
#294 = CIRCLE ( 'NONE', #157, 0.3750000000000001110 ) ;
#295 = MANIFOLD_SOLID_BREP ( 'Corps-Déplacer/Copier1[1]', #88 ) ;
#296 = APPROVAL_STATUS ( 'not_yet_approved' ) ;
#297 = COORDINATED_UNIVERSAL_TIME_OFFSET ( 1, 0, .AHEAD. ) ;
#298 = ADVANCED_FACE ( 'NONE', ( #210, #143 ), #126, .T. ) ;
#299 = ADVANCED_FACE ( 'NONE', ( #124, #237 ), #44, .T. ) ;
#300 = COORDINATED_UNIVERSAL_TIME_OFFSET ( 1, 0, .AHEAD. ) ;
#301 = AXIS2_PLACEMENT_3D ( 'NONE', #236, #120, #6 ) ;
#302 = PRODUCT_DEFINITION_FORMATION_WITH_SPECIFIED_SOURCE ( 'ANY', '', #101, .NOT_KNOWN. ) ;
#303 = EDGE_LOOP ( 'NONE', ( #74 ) ) ;
ENDSEC;
END-ISO-10303-21;
