ISO-10303-21;
HEADER;
FILE_DESCRIPTION (( 'STEP AP203' ),
    '1' );
FILE_NAME ('200764.step',
    '2021-12-01T10:39:57',
    ( '' ),
    ( '' ),
    'SwSTEP 2.0',
    'SolidWorks 2019',
    '' );
FILE_SCHEMA (( 'CONFIG_CONTROL_DESIGN' ));
ENDSEC;

DATA;
#1 = FACE_OUTER_BOUND ( 'NONE', #107, .T. ) ;
#2 = DIRECTION ( 'NONE',  ( -4.275831445896958607E-31, -1.000000000000000000, -1.224646799147353207E-16 ) ) ;
#3 = DIRECTION ( 'NONE',  ( 3.491481338843133355E-15, -1.224646799147353207E-16, 1.000000000000000000 ) ) ;
#4 = APPROVAL ( #267, 'UNSPECIFIED' ) ;
#5 = PLANE ( 'NONE',  #293 ) ;
#6 = CARTESIAN_POINT ( 'NONE',  ( 6.982962677686266711E-16, -2.449293598294706229E-17, 0.1999999999999999833 ) ) ;
#7 = PERSON_AND_ORGANIZATION_ROLE ( 'design_owner' ) ;
#8 = DATE_AND_TIME ( #244, #202 ) ;
#9 = CIRCLE ( 'NONE', #182, 0.4499999999999994005 ) ;
#10 = PERSON_AND_ORGANIZATION_ROLE ( 'classification_officer' ) ;
#11 = SHAPE_DEFINITION_REPRESENTATION ( #258, #264 ) ;
#12 = ADVANCED_FACE ( 'NONE', ( #111, #209 ), #86, .T. ) ;
#13 =( GEOMETRIC_REPRESENTATION_CONTEXT ( 3 ) GLOBAL_UNCERTAINTY_ASSIGNED_CONTEXT ( ( #266 ) ) GLOBAL_UNIT_ASSIGNED_CONTEXT ( ( #120, #166, #23 ) ) REPRESENTATION_CONTEXT ( 'NONE', 'WORKASPACE' ) );
#14 = EDGE_LOOP ( 'NONE', ( #189 ) ) ;
#15 = EDGE_LOOP ( 'NONE', ( #130 ) ) ;
#16 = CARTESIAN_POINT ( 'NONE',  ( 3.142333204958820020E-14, -1.102182119232617714E-15, 9.000000000000000000 ) ) ;
#17 = CONICAL_SURFACE ( 'NONE', #205, 1.499999999999997335, 0.1745329251994260922 ) ;
#18 = DIRECTION ( 'NONE',  ( -3.491481338843133355E-15, 1.224646799147353207E-16, -1.000000000000000000 ) ) ;
#19 = DIRECTION ( 'NONE',  ( 4.279844320860530151E-31, 1.000000000000000000, 1.204669080539451069E-16 ) ) ;
#20 = VERTEX_POINT ( 'NONE', #50 ) ;
#21 = AXIS2_PLACEMENT_3D ( 'NONE', #26, #114, #235 ) ;
#22 = FACE_OUTER_BOUND ( 'NONE', #294, .T. ) ;
#23 =( NAMED_UNIT ( * ) SI_UNIT ( $, .STERADIAN. ) SOLID_ANGLE_UNIT ( ) );
#24 = EDGE_CURVE ( 'NONE', #52, #52, #33, .T. ) ;
#25 = CC_DESIGN_DATE_AND_TIME_ASSIGNMENT ( #37, #199, ( #108 ) ) ;
#26 = CARTESIAN_POINT ( 'NONE',  ( 1.326762908760390423E-13, -4.653657836759941941E-15, 38.00000000000000000 ) ) ;
#27 = CARTESIAN_POINT ( 'NONE',  ( 1.745740669421566678E-14, 0.4499999999999994005, 5.000000000000000000 ) ) ;
#28 = FACE_OUTER_BOUND ( 'NONE', #250, .T. ) ;
#29 = VERTEX_POINT ( 'NONE', #123 ) ;
#30 = CARTESIAN_POINT ( 'NONE',  ( 1.745740669421566678E-14, 3.374459510989170723E-33, 5.000000000000000000 ) ) ;
#31 = PERSON_AND_ORGANIZATION_ROLE ( 'creator' ) ;
#32 = PERSON_AND_ORGANIZATION ( #203, #106 ) ;
#33 = CIRCLE ( 'NONE', #39, 0.4099999999999994760 ) ;
#34 = PERSON_AND_ORGANIZATION ( #203, #106 ) ;
#35 = EDGE_CURVE ( 'NONE', #236, #236, #121, .T. ) ;
#36 = EDGE_LOOP ( 'NONE', ( #132 ) ) ;
#37 = DATE_AND_TIME ( #200, #84 ) ;
#38 = EDGE_LOOP ( 'NONE', ( #82 ) ) ;
#39 = AXIS2_PLACEMENT_3D ( 'NONE', #246, #131, #226 ) ;
#40 = CARTESIAN_POINT ( 'NONE',  ( 0.0000000000000000000, 0.0000000000000000000, 0.0000000000000000000 ) ) ;
#41 = EDGE_LOOP ( 'NONE', ( #109 ) ) ;
#42 = ORIENTED_EDGE ( 'NONE', *, *, #24, .T. ) ;
#43 = CIRCLE ( 'NONE', #139, 1.499999999999997335 ) ;
#44 = APPROVAL_PERSON_ORGANIZATION ( #98, #56, #292 ) ;
#45 = DIRECTION ( 'NONE',  ( 4.275831445896958607E-31, 1.000000000000000000, 1.224646799147353207E-16 ) ) ;
#46 = DIRECTION ( 'NONE',  ( -3.491481338843133355E-15, 1.224646799147353207E-16, -1.000000000000000000 ) ) ;
#47 = CARTESIAN_POINT ( 'NONE',  ( 1.745740669421566678E-14, 3.374459510989170723E-33, 5.000000000000000000 ) ) ;
#48 = DIRECTION ( 'NONE',  ( 3.491481338843133355E-15, -1.224646799147353207E-16, 1.000000000000000000 ) ) ;
#49 = PLANE ( 'NONE',  #134 ) ;
#50 = CARTESIAN_POINT ( 'NONE',  ( 6.982962677686268683E-16, 0.4499999999999994005, 0.2000000000000000389 ) ) ;
#51 = FACE_BOUND ( 'NONE', #129, .T. ) ;
#52 = VERTEX_POINT ( 'NONE', #303 ) ;
#53 = DIRECTION ( 'NONE',  ( -3.491481338843133355E-15, 1.224646799147353207E-16, -1.000000000000000000 ) ) ;
#54 = CARTESIAN_POINT ( 'NONE',  ( 1.316288464743861212E-13, 1.499999999999998668, 37.69999999999999574 ) ) ;
#55 = COORDINATED_UNIVERSAL_TIME_OFFSET ( 1, 0, .AHEAD. ) ;
#56 = APPROVAL ( #240, 'UNSPECIFIED' ) ;
#57 = COORDINATED_UNIVERSAL_TIME_OFFSET ( 1, 0, .AHEAD. ) ;
#58 = SECURITY_CLASSIFICATION ( '', '', #178 ) ;
#59 = EDGE_LOOP ( 'NONE', ( #207 ) ) ;
#60 = DATE_AND_TIME ( #155, #270 ) ;
#61 = ORIENTED_EDGE ( 'NONE', *, *, #261, .F. ) ;
#62 = CLOSED_SHELL ( 'NONE', ( #271, #124, #249, #64, #297, #12, #145, #210 ) ) ;
#63 = ORIENTED_EDGE ( 'NONE', *, *, #229, .T. ) ;
#64 = ADVANCED_FACE ( 'NONE', ( #161, #28 ), #188, .F. ) ;
#65 = EDGE_CURVE ( 'NONE', #239, #239, #257, .T. ) ;
#66 = CARTESIAN_POINT ( 'NONE',  ( -1.188380788292800557E-31, 4.168278696953313379E-33, -3.403657854538493211E-17 ) ) ;
#67 = CC_DESIGN_APPROVAL ( #56, ( #108 ) ) ;
#68 = PLANE ( 'NONE',  #276 ) ;
#69 = DIRECTION ( 'NONE',  ( 0.0000000000000000000, 1.000000000000000000, 0.0000000000000000000 ) ) ;
#70 = APPROVAL ( #180, 'UNSPECIFIED' ) ;
#71 = VERTEX_POINT ( 'NONE', #173 ) ;
#72 = DIRECTION ( 'NONE',  ( 0.0000000000000000000, 1.000000000000000000, 0.0000000000000000000 ) ) ;
#73 = DIRECTION ( 'NONE',  ( 3.491481338843133355E-15, -1.224646799147353207E-16, 1.000000000000000000 ) ) ;
#74 = CIRCLE ( 'NONE', #242, 1.200000000000003286 ) ;
#75 = DIRECTION ( 'NONE',  ( -4.275831445896958607E-31, -1.000000000000000000, -1.224646799147353207E-16 ) ) ;
#76 = LOCAL_TIME ( 11, 39, 57.00000000000000000, #219 ) ;
#77 = CARTESIAN_POINT ( 'NONE',  ( 1.745740669421566678E-14, 0.4499999999999994005, 5.000000000000000000 ) ) ;
#78 = CYLINDRICAL_SURFACE ( 'NONE', #208, 0.4099999999999997535 ) ;
#79 = DESIGN_CONTEXT ( 'detailed design', #144, 'design' ) ;
#80 = CARTESIAN_POINT ( 'NONE',  ( 1.326762908760390423E-13, -4.653657836759941941E-15, 38.00000000000000000 ) ) ;
#81 = AXIS2_PLACEMENT_3D ( 'NONE', #214, #18, #237 ) ;
#82 = ORIENTED_EDGE ( 'NONE', *, *, #35, .T. ) ;
#83 = APPROVAL_DATE_TIME ( #60, #56 ) ;
#84 = LOCAL_TIME ( 11, 39, 57.00000000000000000, #55 ) ;
#85 = EDGE_LOOP ( 'NONE', ( #157 ) ) ;
#86 = CYLINDRICAL_SURFACE ( 'NONE', #234, 1.500000000000000444 ) ;
#87 = AXIS2_PLACEMENT_3D ( 'NONE', #164, #286, #253 ) ;
#88 = EDGE_LOOP ( 'NONE', ( #179 ) ) ;
#89 = ADVANCED_FACE ( 'NONE', ( #1, #92 ), #135, .T. ) ;
#90 = ORIENTED_EDGE ( 'NONE', *, *, #284, .F. ) ;
#91 = FACE_OUTER_BOUND ( 'NONE', #41, .T. ) ;
#92 = FACE_OUTER_BOUND ( 'NONE', #14, .T. ) ;
#93 = VERTEX_POINT ( 'NONE', #54 ) ;
#94 = DIRECTION ( 'NONE',  ( -4.275831445896958607E-31, -1.000000000000000000, -1.224646799147353207E-16 ) ) ;
#95 = CARTESIAN_POINT ( 'NONE',  ( 3.142333204958820020E-14, 0.4099999999999989209, 9.000000000000000000 ) ) ;
#96 = AXIS2_PLACEMENT_3D ( 'NONE', #113, #279, #69 ) ;
#97 = FACE_OUTER_BOUND ( 'NONE', #224, .T. ) ;
#98 = PERSON_AND_ORGANIZATION ( #203, #106 ) ;
#99 = CALENDAR_DATE ( 2021, 1, 12 ) ;
#100 = DATE_AND_TIME ( #184, #140 ) ;
#101 = AXIS2_PLACEMENT_3D ( 'NONE', #211, #256, #72 ) ;
#102 = CC_DESIGN_DATE_AND_TIME_ASSIGNMENT ( #100, #265, ( #58 ) ) ;
#103 = COORDINATED_UNIVERSAL_TIME_OFFSET ( 1, 0, .AHEAD. ) ;
#104 = APPROVAL_ROLE ( '' ) ;
#105 = CIRCLE ( 'NONE', #101, 1.500000000000003331 ) ;
#106 = ORGANIZATION ( 'UNSPECIFIED', 'UNSPECIFIED', '' ) ;
#107 = EDGE_LOOP ( 'NONE', ( #187 ) ) ;
#108 = PRODUCT_DEFINITION ( 'UNKNOWN', '', #277, #79 ) ;
#109 = ORIENTED_EDGE ( 'NONE', *, *, #181, .F. ) ;
#110 = MANIFOLD_SOLID_BREP ( 'Corps-Déplacer/Copier1[1]', #62 ) ;
#111 = FACE_OUTER_BOUND ( 'NONE', #183, .T. ) ;
#112 = DIRECTION ( 'NONE',  ( 3.491481338843133355E-15, -1.224646799147353207E-16, 1.000000000000000000 ) ) ;
#113 = CARTESIAN_POINT ( 'NONE',  ( 3.263591079328456407E-14, -1.144713656224131624E-15, 9.347296355333847728 ) ) ;
#114 = DIRECTION ( 'NONE',  ( -3.491481338843133355E-15, 1.224646799147353207E-16, -1.000000000000000000 ) ) ;
#115 = APPLICATION_PROTOCOL_DEFINITION ( 'international standard', 'config_control_design', 1994, #144 ) ;
#116 = DIRECTION ( 'NONE',  ( -4.279844320860530151E-31, -1.000000000000000000, -1.204669080539451069E-16 ) ) ;
#117 = PRODUCT ( '200764', '200764', '', ( #260 ) ) ;
#118 = CARTESIAN_POINT ( 'NONE',  ( 5.361754247987313568E-14, 1.499999999999995559, 15.35667451043537923 ) ) ;
#119 = CC_DESIGN_PERSON_AND_ORGANIZATION_ASSIGNMENT ( #280, #7, ( #117 ) ) ;
#120 =( LENGTH_UNIT ( ) NAMED_UNIT ( * ) SI_UNIT ( .MILLI., .METRE. ) );
#121 = CIRCLE ( 'NONE', #220, 0.4099999999999999756 ) ;
#122 = CC_DESIGN_SECURITY_CLASSIFICATION ( #58, ( #277 ) ) ;
#123 = CARTESIAN_POINT ( 'NONE',  ( 3.263591079328456407E-14, 0.4403844939755803267, 9.347296355333847728 ) ) ;
#124 = ADVANCED_FACE ( 'NONE', ( #230, #281 ), #162, .T. ) ;
#125 = APPROVAL_DATE_TIME ( #204, #4 ) ;
#126 = CIRCLE ( 'NONE', #218, 0.4500000000000000111 ) ;
#127 = PERSON_AND_ORGANIZATION ( #203, #106 ) ;
#128 = ORIENTED_EDGE ( 'NONE', *, *, #24, .F. ) ;
#129 = EDGE_LOOP ( 'NONE', ( #291 ) ) ;
#130 = ORIENTED_EDGE ( 'NONE', *, *, #65, .T. ) ;
#131 = DIRECTION ( 'NONE',  ( -3.491481338843133355E-15, 1.224646799147353207E-16, -1.000000000000000000 ) ) ;
#132 = ORIENTED_EDGE ( 'NONE', *, *, #241, .F. ) ;
#133 = ORIENTED_EDGE ( 'NONE', *, *, #156, .F. ) ;
#134 = AXIS2_PLACEMENT_3D ( 'NONE', #301, #137, #195 ) ;
#135 = CYLINDRICAL_SURFACE ( 'NONE', #245, 0.4499999999999996780 ) ;
#136 = CARTESIAN_POINT ( 'NONE',  ( 6.982962677686266711E-16, -2.449293598294706229E-17, 0.1999999999999999833 ) ) ;
#137 = DIRECTION ( 'NONE',  ( -3.491481338843133355E-15, 1.224646799147353207E-16, -1.000000000000000000 ) ) ;
#138 = FACE_OUTER_BOUND ( 'NONE', #88, .T. ) ;
#139 = AXIS2_PLACEMENT_3D ( 'NONE', #263, #283, #147 ) ;
#140 = LOCAL_TIME ( 11, 39, 57.00000000000000000, #57 ) ;
#141 = DIRECTION ( 'NONE',  ( -3.491481338843133355E-15, 1.224646799147353207E-16, -1.000000000000000000 ) ) ;
#142 = FACE_OUTER_BOUND ( 'NONE', #15, .T. ) ;
#143 = CC_DESIGN_PERSON_AND_ORGANIZATION_ASSIGNMENT ( #34, #287, ( #277 ) ) ;
#144 = APPLICATION_CONTEXT ( 'configuration controlled 3d designs of mechanical parts and assemblies' ) ;
#145 = ADVANCED_FACE ( 'NONE', ( #91, #51 ), #196, .T. ) ;
#146 = DIRECTION ( 'NONE',  ( 4.275831445896958607E-31, 1.000000000000000000, 1.224646799147353207E-16 ) ) ;
#147 = DIRECTION ( 'NONE',  ( 0.0000000000000000000, 1.000000000000000000, 0.0000000000000000000 ) ) ;
#148 = VERTEX_POINT ( 'NONE', #118 ) ;
#149 = CONICAL_SURFACE ( 'NONE', #288, 0.4499999999999994005, 0.5235987755982929315 ) ;
#150 = APPROVAL_PERSON_ORGANIZATION ( #127, #4, #104 ) ;
#151 = PERSON_AND_ORGANIZATION ( #203, #106 ) ;
#152 = COORDINATED_UNIVERSAL_TIME_OFFSET ( 1, 0, .AHEAD. ) ;
#153 = CLOSED_SHELL ( 'NONE', ( #221, #168, #89, #171 ) ) ;
#154 = CC_DESIGN_APPROVAL ( #4, ( #277 ) ) ;
#155 = CALENDAR_DATE ( 2021, 1, 12 ) ;
#156 = EDGE_CURVE ( 'NONE', #278, #278, #126, .T. ) ;
#157 = ORIENTED_EDGE ( 'NONE', *, *, #222, .T. ) ;
#158 = PERSON_AND_ORGANIZATION_ROLE ( 'creator' ) ;
#159 = AXIS2_PLACEMENT_3D ( 'NONE', #172, #193, #282 ) ;
#160 = ORIENTED_EDGE ( 'NONE', *, *, #181, .T. ) ;
#161 = FACE_OUTER_BOUND ( 'NONE', #296, .T. ) ;
#162 = CONICAL_SURFACE ( 'NONE', #159, 0.4099999999999994760, 0.5235987755982963732 ) ;
#163 = DIRECTION ( 'NONE',  ( 0.0000000000000000000, 1.000000000000000000, 0.0000000000000000000 ) ) ;
#164 = CARTESIAN_POINT ( 'NONE',  ( 0.0000000000000000000, 0.0000000000000000000, 0.0000000000000000000 ) ) ;
#165 = CARTESIAN_POINT ( 'NONE',  ( 3.142333204958820020E-14, -1.301042606982605321E-15, 9.000000000000000000 ) ) ;
#166 =( NAMED_UNIT ( * ) PLANE_ANGLE_UNIT ( ) SI_UNIT ( $, .RADIAN. ) );
#167 = FACE_OUTER_BOUND ( 'NONE', #295, .T. ) ;
#168 = ADVANCED_FACE ( 'NONE', ( #191, #22 ), #149, .T. ) ;
#169 = VERTEX_POINT ( 'NONE', #232 ) ;
#170 = CIRCLE ( 'NONE', #96, 0.4403844939755814369 ) ;
#171 = ADVANCED_FACE ( 'NONE', ( #167 ), #216, .T. ) ;
#172 = CARTESIAN_POINT ( 'NONE',  ( 1.769930361711786712E-14, -6.208080014834759960E-16, 5.069282032302756313 ) ) ;
#173 = CARTESIAN_POINT ( 'NONE',  ( 1.326762908760390423E-13, 1.199999999999998845, 38.00000000000000000 ) ) ;
#174 = CARTESIAN_POINT ( 'NONE',  ( 0.0000000000000000000, 0.0000000000000000000, 0.0000000000000000000 ) ) ;
#175 = CARTESIAN_POINT ( 'NONE',  ( 5.361754247987313568E-14, -1.880650228475243355E-15, 15.35667451043537923 ) ) ;
#176 = PERSON_AND_ORGANIZATION ( #203, #106 ) ;
#177 = APPLICATION_CONTEXT ( 'configuration controlled 3d designs of mechanical parts and assemblies' ) ;
#178 = SECURITY_CLASSIFICATION_LEVEL ( 'unclassified' ) ;
#179 = ORIENTED_EDGE ( 'NONE', *, *, #261, .T. ) ;
#180 = APPROVAL_STATUS ( 'not_yet_approved' ) ;
#181 = EDGE_CURVE ( 'NONE', #93, #93, #105, .T. ) ;
#182 = AXIS2_PLACEMENT_3D ( 'NONE', #136, #231, #19 ) ;
#183 = EDGE_LOOP ( 'NONE', ( #61 ) ) ;
#184 = CALENDAR_DATE ( 2021, 1, 12 ) ;
#185 = EDGE_LOOP ( 'NONE', ( #247 ) ) ;
#186 = CC_DESIGN_PERSON_AND_ORGANIZATION_ASSIGNMENT ( #151, #10, ( #58 ) ) ;
#187 = ORIENTED_EDGE ( 'NONE', *, *, #229, .F. ) ;
#188 = TOROIDAL_SURFACE ( 'NONE', #228, 2.410000000000000142, 2.000000000000000000 ) ;
#189 = ORIENTED_EDGE ( 'NONE', *, *, #156, .T. ) ;
#190 = EDGE_LOOP ( 'NONE', ( #160 ) ) ;
#191 = FACE_BOUND ( 'NONE', #59, .T. ) ;
#192 = FACE_BOUND ( 'NONE', #36, .T. ) ;
#193 = DIRECTION ( 'NONE',  ( -3.491481338843133355E-15, 1.224646799147353207E-16, -1.000000000000000000 ) ) ;
#194 = CC_DESIGN_PERSON_AND_ORGANIZATION_ASSIGNMENT ( #290, #31, ( #108 ) ) ;
#195 = DIRECTION ( 'NONE',  ( 4.275831445896958607E-31, 1.000000000000000000, 1.224646799147353207E-16 ) ) ;
#196 = CONICAL_SURFACE ( 'NONE', #21, 1.200000000000003286, 0.7853981633974453924 ) ;
#197 = FACE_OUTER_BOUND ( 'NONE', #38, .T. ) ;
#198 = DIRECTION ( 'NONE',  ( 0.0000000000000000000, 1.000000000000000000, 0.0000000000000000000 ) ) ;
#199 = DATE_TIME_ROLE ( 'creation_date' ) ;
#200 = CALENDAR_DATE ( 2021, 1, 12 ) ;
#201 = AXIS2_PLACEMENT_3D ( 'NONE', #47, #3, #94 ) ;
#202 = LOCAL_TIME ( 11, 39, 57.00000000000000000, #103 ) ;
#203 = PERSON ( 'UNSPECIFIED', 'UNSPECIFIED', 'UNSPECIFIED', ('UNSPECIFIED'), ('UNSPECIFIED'), ('UNSPECIFIED') ) ;
#204 = DATE_AND_TIME ( #99, #76 ) ;
#205 = AXIS2_PLACEMENT_3D ( 'NONE', #175, #73, #238 ) ;
#206 = ORIENTED_EDGE ( 'NONE', *, *, #35, .F. ) ;
#207 = ORIENTED_EDGE ( 'NONE', *, *, #222, .F. ) ;
#208 = AXIS2_PLACEMENT_3D ( 'NONE', #174, #53, #285 ) ;
#209 = FACE_OUTER_BOUND ( 'NONE', #190, .T. ) ;
#210 = ADVANCED_FACE ( 'NONE', ( #97 ), #49, .F. ) ;
#211 = CARTESIAN_POINT ( 'NONE',  ( 1.316288464743861212E-13, -4.616918432785521081E-15, 37.69999999999999574 ) ) ;
#212 = CARTESIAN_POINT ( 'NONE',  ( 0.0000000000000000000, 0.0000000000000000000, 0.0000000000000000000 ) ) ;
#213 = APPLICATION_PROTOCOL_DEFINITION ( 'international standard', 'config_control_design', 1994, #177 ) ;
#214 = CARTESIAN_POINT ( 'NONE',  ( 1.745740669421566678E-14, -6.123233995736766282E-16, 5.000000000000000000 ) ) ;
#215 = MANIFOLD_SOLID_BREP ( 'Corps-Déplacer/Copier1[2]', #153 ) ;
#216 = PLANE ( 'NONE',  #201 ) ;
#217 = CARTESIAN_POINT ( 'NONE',  ( 1.745740669421566678E-14, -6.123233995736766282E-16, 5.000000000000000000 ) ) ;
#218 = AXIS2_PLACEMENT_3D ( 'NONE', #217, #254, #163 ) ;
#219 = COORDINATED_UNIVERSAL_TIME_OFFSET ( 1, 0, .AHEAD. ) ;
#220 = AXIS2_PLACEMENT_3D ( 'NONE', #16, #141, #233 ) ;
#221 = ADVANCED_FACE ( 'NONE', ( #275 ), #68, .F. ) ;
#222 = EDGE_CURVE ( 'NONE', #169, #169, #269, .T. ) ;
#223 = APPROVAL_DATE_TIME ( #8, #70 ) ;
#224 = EDGE_LOOP ( 'NONE', ( #90 ) ) ;
#225 = ORIENTED_EDGE ( 'NONE', *, *, #241, .T. ) ;
#226 = DIRECTION ( 'NONE',  ( 0.0000000000000000000, 1.000000000000000000, 0.0000000000000000000 ) ) ;
#227 = EDGE_LOOP ( 'NONE', ( #128 ) ) ;
#228 = AXIS2_PLACEMENT_3D ( 'NONE', #165, #251, #45 ) ;
#229 = EDGE_CURVE ( 'NONE', #20, #20, #9, .T. ) ;
#230 = FACE_OUTER_BOUND ( 'NONE', #185, .T. ) ;
#231 = DIRECTION ( 'NONE',  ( -3.491481338843133355E-15, 1.224646799147353207E-16, -1.000000000000000000 ) ) ;
#232 = CARTESIAN_POINT ( 'NONE',  ( -9.463679131915808972E-32, 0.3345299461620758197, -2.710505431213761085E-17 ) ) ;
#233 = DIRECTION ( 'NONE',  ( 0.0000000000000000000, 1.000000000000000000, 0.0000000000000000000 ) ) ;
#234 = AXIS2_PLACEMENT_3D ( 'NONE', #40, #268, #273 ) ;
#235 = DIRECTION ( 'NONE',  ( 0.0000000000000000000, 1.000000000000000000, 0.0000000000000000000 ) ) ;
#236 = VERTEX_POINT ( 'NONE', #95 ) ;
#237 = DIRECTION ( 'NONE',  ( 0.0000000000000000000, 1.000000000000000000, 0.0000000000000000000 ) ) ;
#238 = DIRECTION ( 'NONE',  ( 0.0000000000000000000, -1.000000000000000000, 0.0000000000000000000 ) ) ;
#239 = VERTEX_POINT ( 'NONE', #27 ) ;
#240 = APPROVAL_STATUS ( 'not_yet_approved' ) ;
#241 = EDGE_CURVE ( 'NONE', #29, #29, #170, .T. ) ;
#242 = AXIS2_PLACEMENT_3D ( 'NONE', #80, #255, #198 ) ;
#243 = APPROVAL_PERSON_ORGANIZATION ( #176, #70, #289 ) ;
#244 = CALENDAR_DATE ( 2021, 1, 12 ) ;
#245 = AXIS2_PLACEMENT_3D ( 'NONE', #212, #302, #146 ) ;
#246 = CARTESIAN_POINT ( 'NONE',  ( 1.769930361711786712E-14, -6.208080014834759960E-16, 5.069282032302756313 ) ) ;
#247 = ORIENTED_EDGE ( 'NONE', *, *, #65, .F. ) ;
#248 = CC_DESIGN_PERSON_AND_ORGANIZATION_ASSIGNMENT ( #32, #158, ( #277 ) ) ;
#249 = ADVANCED_FACE ( 'NONE', ( #262, #197 ), #78, .T. ) ;
#250 = EDGE_LOOP ( 'NONE', ( #225 ) ) ;
#251 = DIRECTION ( 'NONE',  ( -3.491481338843133355E-15, 1.224646799147353207E-16, -1.000000000000000000 ) ) ;
#252 = DIRECTION ( 'NONE',  ( 3.491481338843133355E-15, -1.224646799147353207E-16, 1.000000000000000000 ) ) ;
#253 = DIRECTION ( 'NONE',  ( 1.000000000000000000, 0.0000000000000000000, 0.0000000000000000000 ) ) ;
#254 = DIRECTION ( 'NONE',  ( -3.491481338843133355E-15, 1.224646799147353207E-16, -1.000000000000000000 ) ) ;
#255 = DIRECTION ( 'NONE',  ( -3.491481338843133355E-15, 1.224646799147353207E-16, -1.000000000000000000 ) ) ;
#256 = DIRECTION ( 'NONE',  ( -3.491481338843133355E-15, 1.224646799147353207E-16, -1.000000000000000000 ) ) ;
#257 = CIRCLE ( 'NONE', #81, 0.4500000000000000111 ) ;
#258 = PRODUCT_DEFINITION_SHAPE ( 'NONE', 'NONE',  #108 ) ;
#259 = CARTESIAN_POINT ( 'NONE',  ( -2.376761576585601114E-31, 8.336557393906626757E-33, -6.807315709076986423E-17 ) ) ;
#260 = MECHANICAL_CONTEXT ( 'NONE', #177, 'mechanical' ) ;
#261 = EDGE_CURVE ( 'NONE', #148, #148, #43, .T. ) ;
#262 = FACE_OUTER_BOUND ( 'NONE', #227, .T. ) ;
#263 = CARTESIAN_POINT ( 'NONE',  ( 5.361754247987313568E-14, -1.880650228475243355E-15, 15.35667451043537923 ) ) ;
#264 = ADVANCED_BREP_SHAPE_REPRESENTATION ( '200764', ( #110, #215, #87 ), #13 ) ;
#265 = DATE_TIME_ROLE ( 'classification_date' ) ;
#266 = UNCERTAINTY_MEASURE_WITH_UNIT (LENGTH_MEASURE( 1.000000000000000082E-05 ), #120, 'distance_accuracy_value', 'NONE');
#267 = APPROVAL_STATUS ( 'not_yet_approved' ) ;
#268 = DIRECTION ( 'NONE',  ( -3.491481338843133355E-15, 1.224646799147353207E-16, -1.000000000000000000 ) ) ;
#269 = CIRCLE ( 'NONE', #298, 0.3345299461620758197 ) ;
#270 = LOCAL_TIME ( 11, 39, 57.00000000000000000, #152 ) ;
#271 = ADVANCED_FACE ( 'NONE', ( #142 ), #5, .F. ) ;
#272 = PRODUCT_RELATED_PRODUCT_CATEGORY ( 'detail', '', ( #117 ) ) ;
#273 = DIRECTION ( 'NONE',  ( 4.275831445896958607E-31, 1.000000000000000000, 1.224646799147353207E-16 ) ) ;
#274 = DIRECTION ( 'NONE',  ( 4.275831445896958607E-31, 1.000000000000000000, 1.224646799147353207E-16 ) ) ;
#275 = FACE_OUTER_BOUND ( 'NONE', #85, .T. ) ;
#276 = AXIS2_PLACEMENT_3D ( 'NONE', #66, #252, #75 ) ;
#277 = PRODUCT_DEFINITION_FORMATION_WITH_SPECIFIED_SOURCE ( 'ANY', '', #117, .NOT_KNOWN. ) ;
#278 = VERTEX_POINT ( 'NONE', #77 ) ;
#279 = DIRECTION ( 'NONE',  ( -3.491481338843133355E-15, 1.224646799147353207E-16, -1.000000000000000000 ) ) ;
#280 = PERSON_AND_ORGANIZATION ( #203, #106 ) ;
#281 = FACE_BOUND ( 'NONE', #300, .T. ) ;
#282 = DIRECTION ( 'NONE',  ( 0.0000000000000000000, 1.000000000000000000, 0.0000000000000000000 ) ) ;
#283 = DIRECTION ( 'NONE',  ( -3.491481338843133355E-15, 1.224646799147353207E-16, -1.000000000000000000 ) ) ;
#284 = EDGE_CURVE ( 'NONE', #71, #71, #74, .T. ) ;
#285 = DIRECTION ( 'NONE',  ( 4.275831445896958607E-31, 1.000000000000000000, 1.224646799147353207E-16 ) ) ;
#286 = DIRECTION ( 'NONE',  ( 0.0000000000000000000, 0.0000000000000000000, 1.000000000000000000 ) ) ;
#287 = PERSON_AND_ORGANIZATION_ROLE ( 'design_supplier' ) ;
#288 = AXIS2_PLACEMENT_3D ( 'NONE', #6, #112, #116 ) ;
#289 = APPROVAL_ROLE ( '' ) ;
#290 = PERSON_AND_ORGANIZATION ( #203, #106 ) ;
#291 = ORIENTED_EDGE ( 'NONE', *, *, #284, .T. ) ;
#292 = APPROVAL_ROLE ( '' ) ;
#293 = AXIS2_PLACEMENT_3D ( 'NONE', #30, #48, #2 ) ;
#294 = EDGE_LOOP ( 'NONE', ( #63 ) ) ;
#295 = EDGE_LOOP ( 'NONE', ( #133 ) ) ;
#296 = EDGE_LOOP ( 'NONE', ( #206 ) ) ;
#297 = ADVANCED_FACE ( 'NONE', ( #192, #138 ), #17, .T. ) ;
#298 = AXIS2_PLACEMENT_3D ( 'NONE', #259, #46, #274 ) ;
#299 = CC_DESIGN_APPROVAL ( #70, ( #58 ) ) ;
#300 = EDGE_LOOP ( 'NONE', ( #42 ) ) ;
#301 = CARTESIAN_POINT ( 'NONE',  ( 1.326762908760390423E-13, 8.998558695971103225E-33, 38.00000000000000000 ) ) ;
#302 = DIRECTION ( 'NONE',  ( -3.491481338843133355E-15, 1.224646799147353207E-16, -1.000000000000000000 ) ) ;
#303 = CARTESIAN_POINT ( 'NONE',  ( 1.769930361711786712E-14, 0.4099999999999989209, 5.069282032302756313 ) ) ;
ENDSEC;
END-ISO-10303-21;
