ISO-10303-21;
HEADER;
FILE_DESCRIPTION (( 'STEP AP203' ),
    '1' );
FILE_NAME ('200763.step',
    '2021-12-01T10:39:57',
    ( '' ),
    ( '' ),
    'SwSTEP 2.0',
    'SolidWorks 2019',
    '' );
FILE_SCHEMA (( 'CONFIG_CONTROL_DESIGN' ));
ENDSEC;

DATA;
#1 = PERSON_AND_ORGANIZATION ( #23, #298 ) ;
#2 = CC_DESIGN_PERSON_AND_ORGANIZATION_ASSIGNMENT ( #17, #157, ( #209 ) ) ;
#3 = APPROVAL_DATE_TIME ( #95, #57 ) ;
#4 = PRODUCT_RELATED_PRODUCT_CATEGORY ( 'detail', '', ( #108 ) ) ;
#5 = DIRECTION ( 'NONE',  ( -3.491481338843133355E-15, 1.224646799147353207E-16, -1.000000000000000000 ) ) ;
#6 = DIRECTION ( 'NONE',  ( -3.491481338843133355E-15, 1.224646799147353207E-16, -1.000000000000000000 ) ) ;
#7 = AXIS2_PLACEMENT_3D ( 'NONE', #80, #238, #165 ) ;
#8 = FACE_BOUND ( 'NONE', #263, .T. ) ;
#9 = FACE_BOUND ( 'NONE', #173, .T. ) ;
#10 = EDGE_CURVE ( 'NONE', #105, #105, #81, .T. ) ;
#11 = PLANE ( 'NONE',  #233 ) ;
#12 = EDGE_LOOP ( 'NONE', ( #198 ) ) ;
#13 = EDGE_LOOP ( 'NONE', ( #147 ) ) ;
#14 = VERTEX_POINT ( 'NONE', #248 ) ;
#15 = ORIENTED_EDGE ( 'NONE', *, *, #252, .T. ) ;
#16 = EDGE_LOOP ( 'NONE', ( #267 ) ) ;
#17 = PERSON_AND_ORGANIZATION ( #23, #298 ) ;
#18 = AXIS2_PLACEMENT_3D ( 'NONE', #129, #192, #283 ) ;
#19 = DIRECTION ( 'NONE',  ( 1.000000000000000000, 0.0000000000000000000, 0.0000000000000000000 ) ) ;
#20 = DATE_TIME_ROLE ( 'classification_date' ) ;
#21 = CIRCLE ( 'NONE', #27, 1.499999999999997335 ) ;
#22 = FACE_OUTER_BOUND ( 'NONE', #66, .T. ) ;
#23 = PERSON ( 'UNSPECIFIED', 'UNSPECIFIED', 'UNSPECIFIED', ('UNSPECIFIED'), ('UNSPECIFIED'), ('UNSPECIFIED') ) ;
#24 = ADVANCED_FACE ( 'NONE', ( #39, #64 ), #169, .F. ) ;
#25 = EDGE_CURVE ( 'NONE', #89, #89, #21, .T. ) ;
#26 = CALENDAR_DATE ( 2021, 1, 12 ) ;
#27 = AXIS2_PLACEMENT_3D ( 'NONE', #222, #55, #234 ) ;
#28 = LOCAL_TIME ( 11, 39, 57.00000000000000000, #211 ) ;
#29 = CARTESIAN_POINT ( 'NONE',  ( 1.326762908760390423E-13, 8.998558695971103225E-33, 38.00000000000000000 ) ) ;
#30 = FACE_OUTER_BOUND ( 'NONE', #110, .T. ) ;
#31 = FACE_OUTER_BOUND ( 'NONE', #130, .T. ) ;
#32 = AXIS2_PLACEMENT_3D ( 'NONE', #202, #54, #123 ) ;
#33 = APPROVAL_PERSON_ORGANIZATION ( #132, #148, #225 ) ;
#34 = DIRECTION ( 'NONE',  ( 3.491481338843133355E-15, -1.224646799147353207E-16, 1.000000000000000000 ) ) ;
#35 = CC_DESIGN_DATE_AND_TIME_ASSIGNMENT ( #94, #227, ( #209 ) ) ;
#36 = DIRECTION ( 'NONE',  ( -3.491481338843133355E-15, 1.224646799147353207E-16, -1.000000000000000000 ) ) ;
#37 = PRODUCT_DEFINITION_SHAPE ( 'NONE', 'NONE',  #209 ) ;
#38 = EDGE_LOOP ( 'NONE', ( #219 ) ) ;
#39 = FACE_OUTER_BOUND ( 'NONE', #133, .T. ) ;
#40 = UNCERTAINTY_MEASURE_WITH_UNIT (LENGTH_MEASURE( 1.000000000000000082E-05 ), #172, 'distance_accuracy_value', 'NONE');
#41 = CIRCLE ( 'NONE', #266, 1.200000000000003286 ) ;
#42 =( NAMED_UNIT ( * ) PLANE_ANGLE_UNIT ( ) SI_UNIT ( $, .RADIAN. ) );
#43 = CARTESIAN_POINT ( 'NONE',  ( 5.411257184588604471E-14, -1.898013521293887298E-15, 15.49845655592582716 ) ) ;
#44 = ORIENTED_EDGE ( 'NONE', *, *, #189, .F. ) ;
#45 = ORIENTED_EDGE ( 'NONE', *, *, #189, .T. ) ;
#46 = CARTESIAN_POINT ( 'NONE',  ( 1.316288464743861212E-13, 1.499999999999998668, 37.69999999999999574 ) ) ;
#47 = CYLINDRICAL_SURFACE ( 'NONE', #254, 0.3849999999999998979 ) ;
#48 = CARTESIAN_POINT ( 'NONE',  ( -2.138211768073756517E-47, 0.3672649730810378377, 0.0000000000000000000 ) ) ;
#49 = CARTESIAN_POINT ( 'NONE',  ( 1.769930361711786397E-14, -6.208080014834758974E-16, 5.069282032302755425 ) ) ;
#50 = CALENDAR_DATE ( 2021, 1, 12 ) ;
#51 = SHAPE_DEFINITION_REPRESENTATION ( #37, #191 ) ;
#52 = CONICAL_SURFACE ( 'NONE', #104, 1.200000000000003286, 0.7853981633974453924 ) ;
#53 = DIRECTION ( 'NONE',  ( 3.491481338843133355E-15, -1.224646799147353207E-16, 1.000000000000000000 ) ) ;
#54 = DIRECTION ( 'NONE',  ( -3.491481338843133355E-15, 1.224646799147353207E-16, -1.000000000000000000 ) ) ;
#55 = DIRECTION ( 'NONE',  ( -3.491481338843133355E-15, 1.224646799147353207E-16, -1.000000000000000000 ) ) ;
#56 = EDGE_CURVE ( 'NONE', #134, #134, #164, .T. ) ;
#57 = APPROVAL ( #74, 'UNSPECIFIED' ) ;
#58 = AXIS2_PLACEMENT_3D ( 'NONE', #49, #118, #210 ) ;
#59 = CARTESIAN_POINT ( 'NONE',  ( 0.0000000000000000000, 0.0000000000000000000, 0.0000000000000000000 ) ) ;
#60 = EDGE_LOOP ( 'NONE', ( #44 ) ) ;
#61 = DIRECTION ( 'NONE',  ( 4.275831445896958607E-31, 1.000000000000000000, 1.224646799147353207E-16 ) ) ;
#62 = ORIENTED_EDGE ( 'NONE', *, *, #111, .T. ) ;
#63 = COORDINATED_UNIVERSAL_TIME_OFFSET ( 1, 0, .AHEAD. ) ;
#64 = FACE_OUTER_BOUND ( 'NONE', #261, .T. ) ;
#65 = PERSON_AND_ORGANIZATION_ROLE ( 'design_owner' ) ;
#66 = EDGE_LOOP ( 'NONE', ( #274 ) ) ;
#67 = APPROVAL_DATE_TIME ( #205, #148 ) ;
#68 = EDGE_LOOP ( 'NONE', ( #45 ) ) ;
#69 = CARTESIAN_POINT ( 'NONE',  ( 5.411257184588604471E-14, 1.499999999999995559, 15.49845655592582716 ) ) ;
#70 = ADVANCED_FACE ( 'NONE', ( #30 ), #195, .T. ) ;
#71 = AXIS2_PLACEMENT_3D ( 'NONE', #236, #6, #218 ) ;
#72 = PERSON_AND_ORGANIZATION ( #23, #298 ) ;
#73 = CC_DESIGN_PERSON_AND_ORGANIZATION_ASSIGNMENT ( #246, #65, ( #108 ) ) ;
#74 = APPROVAL_STATUS ( 'not_yet_approved' ) ;
#75 = DATE_AND_TIME ( #231, #96 ) ;
#76 = AXIS2_PLACEMENT_3D ( 'NONE', #240, #297, #90 ) ;
#77 = CARTESIAN_POINT ( 'NONE',  ( 1.745740669421566678E-14, 3.186989538156439206E-33, 5.000000000000000000 ) ) ;
#78 = PLANE ( 'NONE',  #249 ) ;
#79 = DIRECTION ( 'NONE',  ( -3.491481338843133355E-15, 1.224646799147353207E-16, -1.000000000000000000 ) ) ;
#80 = CARTESIAN_POINT ( 'NONE',  ( 3.142333204958819389E-14, -1.102182119232617517E-15, 8.999999999999998224 ) ) ;
#81 = CIRCLE ( 'NONE', #76, 1.500000000000003331 ) ;
#82 = DIRECTION ( 'NONE',  ( 0.0000000000000000000, 1.000000000000000000, 0.0000000000000000000 ) ) ;
#83 = EDGE_LOOP ( 'NONE', ( #294 ) ) ;
#84 = CARTESIAN_POINT ( 'NONE',  ( 3.491481338843134341E-16, 0.4249999999999994893, 0.1000000000000000194 ) ) ;
#85 = EDGE_LOOP ( 'NONE', ( #176 ) ) ;
#86 =( NAMED_UNIT ( * ) SI_UNIT ( $, .STERADIAN. ) SOLID_ANGLE_UNIT ( ) );
#87 = DIRECTION ( 'NONE',  ( -4.531599869146442659E-31, -1.000000000000000000, -1.275531967630006725E-16 ) ) ;
#88 = AXIS2_PLACEMENT_3D ( 'NONE', #286, #5, #82 ) ;
#89 = VERTEX_POINT ( 'NONE', #69 ) ;
#90 = DIRECTION ( 'NONE',  ( 0.0000000000000000000, 1.000000000000000000, 0.0000000000000000000 ) ) ;
#91 = CARTESIAN_POINT ( 'NONE',  ( 3.263591079328455776E-14, 0.4153844939755802490, 9.347296355333845952 ) ) ;
#92 = ADVANCED_FACE ( 'NONE', ( #163, #9 ), #290, .T. ) ;
#93 = FACE_BOUND ( 'NONE', #151, .T. ) ;
#94 = DATE_AND_TIME ( #135, #115 ) ;
#95 = DATE_AND_TIME ( #26, #285 ) ;
#96 = LOCAL_TIME ( 11, 39, 57.00000000000000000, #279 ) ;
#97 = DIRECTION ( 'NONE',  ( 4.275831445896958607E-31, 1.000000000000000000, 1.224646799147353207E-16 ) ) ;
#98 = DIRECTION ( 'NONE',  ( -4.275831445896958607E-31, -1.000000000000000000, -1.224646799147353207E-16 ) ) ;
#99 = CC_DESIGN_PERSON_AND_ORGANIZATION_ASSIGNMENT ( #120, #188, ( #302 ) ) ;
#100 = FACE_OUTER_BOUND ( 'NONE', #106, .T. ) ;
#101 = CARTESIAN_POINT ( 'NONE',  ( 1.769930361711786397E-14, -6.208080014834758974E-16, 5.069282032302755425 ) ) ;
#102 = CARTESIAN_POINT ( 'NONE',  ( 1.745740669421566678E-14, -6.123233995736766282E-16, 5.000000000000000000 ) ) ;
#103 = ORIENTED_EDGE ( 'NONE', *, *, #56, .F. ) ;
#104 = AXIS2_PLACEMENT_3D ( 'NONE', #269, #229, #292 ) ;
#105 = VERTEX_POINT ( 'NONE', #46 ) ;
#106 = EDGE_LOOP ( 'NONE', ( #154 ) ) ;
#107 = VERTEX_POINT ( 'NONE', #48 ) ;
#108 = PRODUCT ( '200763', '200763', '', ( #221 ) ) ;
#109 = ORIENTED_EDGE ( 'NONE', *, *, #125, .F. ) ;
#110 = EDGE_LOOP ( 'NONE', ( #265 ) ) ;
#111 = EDGE_CURVE ( 'NONE', #223, #223, #177, .T. ) ;
#112 = CC_DESIGN_PERSON_AND_ORGANIZATION_ASSIGNMENT ( #72, #228, ( #302 ) ) ;
#113 = APPLICATION_CONTEXT ( 'configuration controlled 3d designs of mechanical parts and assemblies' ) ;
#114 = AXIS2_PLACEMENT_3D ( 'NONE', #287, #34, #214 ) ;
#115 = LOCAL_TIME ( 11, 39, 57.00000000000000000, #63 ) ;
#116 = PERSON_AND_ORGANIZATION ( #23, #298 ) ;
#117 = CONICAL_SURFACE ( 'NONE', #186, 0.4249999999999994893, 0.5235987755982918213 ) ;
#118 = DIRECTION ( 'NONE',  ( -3.491481338843133355E-15, 1.224646799147353207E-16, -1.000000000000000000 ) ) ;
#119 = EDGE_CURVE ( 'NONE', #244, #244, #284, .T. ) ;
#120 = PERSON_AND_ORGANIZATION ( #23, #298 ) ;
#121 = CLOSED_SHELL ( 'NONE', ( #162, #295, #161, #70 ) ) ;
#122 = CC_DESIGN_APPROVAL ( #237, ( #302 ) ) ;
#123 = DIRECTION ( 'NONE',  ( 4.275831445896958607E-31, 1.000000000000000000, 1.224646799147353207E-16 ) ) ;
#124 = DIRECTION ( 'NONE',  ( -4.275831445896958607E-31, -1.000000000000000000, -1.224646799147353207E-16 ) ) ;
#125 = EDGE_CURVE ( 'NONE', #107, #107, #241, .T. ) ;
#126 = CARTESIAN_POINT ( 'NONE',  ( 1.326762908760390423E-13, -4.653657836759941941E-15, 38.00000000000000000 ) ) ;
#127 = AXIS2_PLACEMENT_3D ( 'NONE', #142, #262, #61 ) ;
#128 = DIRECTION ( 'NONE',  ( 0.0000000000000000000, 1.000000000000000000, 0.0000000000000000000 ) ) ;
#129 = CARTESIAN_POINT ( 'NONE',  ( 3.491481338843132369E-16, -1.224646799147352807E-17, 0.09999999999999996392 ) ) ;
#130 = EDGE_LOOP ( 'NONE', ( #224 ) ) ;
#131 = ORIENTED_EDGE ( 'NONE', *, *, #252, .F. ) ;
#132 = PERSON_AND_ORGANIZATION ( #23, #298 ) ;
#133 = EDGE_LOOP ( 'NONE', ( #103 ) ) ;
#134 = VERTEX_POINT ( 'NONE', #201 ) ;
#135 = CALENDAR_DATE ( 2021, 1, 12 ) ;
#136 = CARTESIAN_POINT ( 'NONE',  ( 1.745740669421566678E-14, 0.4249999999999994893, 5.000000000000000000 ) ) ;
#137 = DATE_AND_TIME ( #50, #28 ) ;
#138 = APPROVAL_ROLE ( '' ) ;
#139 = EDGE_CURVE ( 'NONE', #293, #293, #41, .T. ) ;
#140 = CIRCLE ( 'NONE', #58, 0.3849999999999996758 ) ;
#141 = AXIS2_PLACEMENT_3D ( 'NONE', #150, #181, #19 ) ;
#142 = CARTESIAN_POINT ( 'NONE',  ( 0.0000000000000000000, 0.0000000000000000000, 0.0000000000000000000 ) ) ;
#143 = FACE_OUTER_BOUND ( 'NONE', #16, .T. ) ;
#144 = DIRECTION ( 'NONE',  ( -3.491481338843133355E-15, 1.224646799147353207E-16, -1.000000000000000000 ) ) ;
#145 = CIRCLE ( 'NONE', #18, 0.4249999999999994893 ) ;
#146 = DIRECTION ( 'NONE',  ( -3.491481338843133355E-15, 1.224646799147353207E-16, -1.000000000000000000 ) ) ;
#147 = ORIENTED_EDGE ( 'NONE', *, *, #139, .T. ) ;
#148 = APPROVAL ( #264, 'UNSPECIFIED' ) ;
#149 = DIRECTION ( 'NONE',  ( 3.491481338843133355E-15, -1.224646799147353207E-16, 1.000000000000000000 ) ) ;
#150 = CARTESIAN_POINT ( 'NONE',  ( 0.0000000000000000000, 0.0000000000000000000, 0.0000000000000000000 ) ) ;
#151 = EDGE_LOOP ( 'NONE', ( #109 ) ) ;
#152 = CONICAL_SURFACE ( 'NONE', #278, 1.499999999999997335, 0.1745329251994260644 ) ;
#153 = APPLICATION_PROTOCOL_DEFINITION ( 'international standard', 'config_control_design', 1994, #270 ) ;
#154 = ORIENTED_EDGE ( 'NONE', *, *, #25, .T. ) ;
#155 = CARTESIAN_POINT ( 'NONE',  ( 1.326762908760390423E-13, 1.199999999999998845, 38.00000000000000000 ) ) ;
#156 = AXIS2_PLACEMENT_3D ( 'NONE', #101, #79, #166 ) ;
#157 = PERSON_AND_ORGANIZATION_ROLE ( 'creator' ) ;
#158 = FACE_OUTER_BOUND ( 'NONE', #203, .T. ) ;
#159 = SECURITY_CLASSIFICATION ( '', '', #232 ) ;
#160 = COORDINATED_UNIVERSAL_TIME_OFFSET ( 1, 0, .AHEAD. ) ;
#161 = ADVANCED_FACE ( 'NONE', ( #193, #196 ), #170, .T. ) ;
#162 = ADVANCED_FACE ( 'NONE', ( #235 ), #78, .F. ) ;
#163 = FACE_OUTER_BOUND ( 'NONE', #291, .T. ) ;
#164 = CIRCLE ( 'NONE', #7, 0.3850000000000001199 ) ;
#165 = DIRECTION ( 'NONE',  ( 0.0000000000000000000, 1.000000000000000000, 0.0000000000000000000 ) ) ;
#166 = DIRECTION ( 'NONE',  ( 0.0000000000000000000, 1.000000000000000000, 0.0000000000000000000 ) ) ;
#167 = DIRECTION ( 'NONE',  ( 3.491481338843133355E-15, -1.224646799147353207E-16, 1.000000000000000000 ) ) ;
#168 = ADVANCED_FACE ( 'NONE', ( #289, #213 ), #258, .T. ) ;
#169 = TOROIDAL_SURFACE ( 'NONE', #32, 2.385000000000000231, 2.000000000000000000 ) ;
#170 = CYLINDRICAL_SURFACE ( 'NONE', #127, 0.4249999999999998224 ) ;
#171 = EDGE_LOOP ( 'NONE', ( #62 ) ) ;
#172 =( LENGTH_UNIT ( ) NAMED_UNIT ( * ) SI_UNIT ( .MILLI., .METRE. ) );
#173 = EDGE_LOOP ( 'NONE', ( #15 ) ) ;
#174 = CC_DESIGN_PERSON_AND_ORGANIZATION_ASSIGNMENT ( #1, #303, ( #159 ) ) ;
#175 = DIRECTION ( 'NONE',  ( 3.491481338843133355E-15, -1.224646799147353207E-16, 1.000000000000000000 ) ) ;
#176 = ORIENTED_EDGE ( 'NONE', *, *, #25, .F. ) ;
#177 = CIRCLE ( 'NONE', #259, 0.4250000000000000999 ) ;
#178 =( GEOMETRIC_REPRESENTATION_CONTEXT ( 3 ) GLOBAL_UNCERTAINTY_ASSIGNED_CONTEXT ( ( #40 ) ) GLOBAL_UNIT_ASSIGNED_CONTEXT ( ( #172, #42, #86 ) ) REPRESENTATION_CONTEXT ( 'NONE', 'WORKASPACE' ) );
#179 = MANIFOLD_SOLID_BREP ( 'Corps-Déplacer/Copier1[1]', #194 ) ;
#180 = COORDINATED_UNIVERSAL_TIME_OFFSET ( 1, 0, .AHEAD. ) ;
#181 = DIRECTION ( 'NONE',  ( 0.0000000000000000000, 0.0000000000000000000, 1.000000000000000000 ) ) ;
#182 = FACE_OUTER_BOUND ( 'NONE', #68, .T. ) ;
#183 = CARTESIAN_POINT ( 'NONE',  ( 1.745740669421566678E-14, 0.4249999999999994893, 5.000000000000000000 ) ) ;
#184 = FACE_BOUND ( 'NONE', #13, .T. ) ;
#185 = APPROVAL_DATE_TIME ( #75, #237 ) ;
#186 = AXIS2_PLACEMENT_3D ( 'NONE', #276, #149, #87 ) ;
#187 = ADVANCED_FACE ( 'NONE', ( #143 ), #239, .F. ) ;
#188 = PERSON_AND_ORGANIZATION_ROLE ( 'design_supplier' ) ;
#189 = EDGE_CURVE ( 'NONE', #275, #275, #145, .T. ) ;
#190 = CIRCLE ( 'NONE', #71, 0.4250000000000000999 ) ;
#191 = ADVANCED_BREP_SHAPE_REPRESENTATION ( '200763', ( #179, #282, #141 ), #178 ) ;
#192 = DIRECTION ( 'NONE',  ( -3.491481338843133355E-15, 1.224646799147353207E-16, -1.000000000000000000 ) ) ;
#193 = FACE_OUTER_BOUND ( 'NONE', #60, .T. ) ;
#194 = CLOSED_SHELL ( 'NONE', ( #215, #92, #273, #24, #216, #168, #271, #187 ) ) ;
#195 = PLANE ( 'NONE',  #114 ) ;
#196 = FACE_OUTER_BOUND ( 'NONE', #171, .T. ) ;
#197 = DIRECTION ( 'NONE',  ( -3.491481338843133355E-15, 1.224646799147353207E-16, -1.000000000000000000 ) ) ;
#198 = ORIENTED_EDGE ( 'NONE', *, *, #125, .T. ) ;
#199 = CC_DESIGN_APPROVAL ( #57, ( #159 ) ) ;
#200 = ORIENTED_EDGE ( 'NONE', *, *, #119, .T. ) ;
#201 = CARTESIAN_POINT ( 'NONE',  ( 3.142333204958819389E-14, 0.3849999999999990652, 8.999999999999998224 ) ) ;
#202 = CARTESIAN_POINT ( 'NONE',  ( 3.142333204958820020E-14, -1.301042606982605321E-15, 9.000000000000000000 ) ) ;
#203 = EDGE_LOOP ( 'NONE', ( #131 ) ) ;
#204 = LOCAL_TIME ( 11, 39, 57.00000000000000000, #180 ) ;
#205 = DATE_AND_TIME ( #272, #204 ) ;
#206 = DIRECTION ( 'NONE',  ( -3.491481338843133355E-15, 1.224646799147353207E-16, -1.000000000000000000 ) ) ;
#207 = EDGE_CURVE ( 'NONE', #277, #277, #190, .T. ) ;
#208 = APPROVAL_STATUS ( 'not_yet_approved' ) ;
#209 = PRODUCT_DEFINITION ( 'UNKNOWN', '', #302, #220 ) ;
#210 = DIRECTION ( 'NONE',  ( 0.0000000000000000000, 1.000000000000000000, 0.0000000000000000000 ) ) ;
#211 = COORDINATED_UNIVERSAL_TIME_OFFSET ( 1, 0, .AHEAD. ) ;
#212 = DIRECTION ( 'NONE',  ( 4.275831445896958607E-31, 1.000000000000000000, 1.224646799147353207E-16 ) ) ;
#213 = FACE_OUTER_BOUND ( 'NONE', #83, .T. ) ;
#214 = DIRECTION ( 'NONE',  ( -4.275831445896958607E-31, -1.000000000000000000, -1.224646799147353207E-16 ) ) ;
#215 = ADVANCED_FACE ( 'NONE', ( #31 ), #11, .F. ) ;
#216 = ADVANCED_FACE ( 'NONE', ( #8, #100 ), #152, .T. ) ;
#217 = CARTESIAN_POINT ( 'NONE',  ( -1.570363120876401687E-31, 5.508092362073303763E-33, -4.497698737226318590E-17 ) ) ;
#218 = DIRECTION ( 'NONE',  ( 0.0000000000000000000, 1.000000000000000000, 0.0000000000000000000 ) ) ;
#219 = ORIENTED_EDGE ( 'NONE', *, *, #56, .T. ) ;
#220 = DESIGN_CONTEXT ( 'detailed design', #270, 'design' ) ;
#221 = MECHANICAL_CONTEXT ( 'NONE', #113, 'mechanical' ) ;
#222 = CARTESIAN_POINT ( 'NONE',  ( 5.411257184588604471E-14, -1.898013521293887298E-15, 15.49845655592582716 ) ) ;
#223 = VERTEX_POINT ( 'NONE', #183 ) ;
#224 = ORIENTED_EDGE ( 'NONE', *, *, #207, .T. ) ;
#225 = APPROVAL_ROLE ( '' ) ;
#226 = CARTESIAN_POINT ( 'NONE',  ( 0.0000000000000000000, 0.0000000000000000000, 0.0000000000000000000 ) ) ;
#227 = DATE_TIME_ROLE ( 'creation_date' ) ;
#228 = PERSON_AND_ORGANIZATION_ROLE ( 'creator' ) ;
#229 = DIRECTION ( 'NONE',  ( -3.491481338843133355E-15, 1.224646799147353207E-16, -1.000000000000000000 ) ) ;
#230 = AXIS2_PLACEMENT_3D ( 'NONE', #59, #146, #256 ) ;
#231 = CALENDAR_DATE ( 2021, 1, 12 ) ;
#232 = SECURITY_CLASSIFICATION_LEVEL ( 'unclassified' ) ;
#233 = AXIS2_PLACEMENT_3D ( 'NONE', #77, #53, #124 ) ;
#234 = DIRECTION ( 'NONE',  ( 0.0000000000000000000, 1.000000000000000000, 0.0000000000000000000 ) ) ;
#235 = FACE_OUTER_BOUND ( 'NONE', #12, .T. ) ;
#236 = CARTESIAN_POINT ( 'NONE',  ( 1.745740669421566678E-14, -6.123233995736766282E-16, 5.000000000000000000 ) ) ;
#237 = APPROVAL ( #208, 'UNSPECIFIED' ) ;
#238 = DIRECTION ( 'NONE',  ( -3.491481338843133355E-15, 1.224646799147353207E-16, -1.000000000000000000 ) ) ;
#239 = PLANE ( 'NONE',  #280 ) ;
#240 = CARTESIAN_POINT ( 'NONE',  ( 1.316288464743861212E-13, -4.616918432785521081E-15, 37.69999999999999574 ) ) ;
#241 = CIRCLE ( 'NONE', #301, 0.3672649730810378377 ) ;
#242 = ORIENTED_EDGE ( 'NONE', *, *, #207, .F. ) ;
#243 = APPROVAL_PERSON_ORGANIZATION ( #116, #237, #300 ) ;
#244 = VERTEX_POINT ( 'NONE', #91 ) ;
#245 = ORIENTED_EDGE ( 'NONE', *, *, #119, .F. ) ;
#246 = PERSON_AND_ORGANIZATION ( #23, #298 ) ;
#247 = FACE_OUTER_BOUND ( 'NONE', #38, .T. ) ;
#248 = CARTESIAN_POINT ( 'NONE',  ( 1.769930361711786397E-14, 0.3849999999999990652, 5.069282032302755425 ) ) ;
#249 = AXIS2_PLACEMENT_3D ( 'NONE', #288, #167, #98 ) ;
#250 = APPLICATION_PROTOCOL_DEFINITION ( 'international standard', 'config_control_design', 1994, #113 ) ;
#251 = PERSON_AND_ORGANIZATION ( #23, #298 ) ;
#252 = EDGE_CURVE ( 'NONE', #14, #14, #140, .T. ) ;
#253 = DIRECTION ( 'NONE',  ( -3.491481338843133355E-15, 1.224646799147353207E-16, -1.000000000000000000 ) ) ;
#254 = AXIS2_PLACEMENT_3D ( 'NONE', #226, #206, #299 ) ;
#255 = DIRECTION ( 'NONE',  ( 0.0000000000000000000, -1.000000000000000000, 0.0000000000000000000 ) ) ;
#256 = DIRECTION ( 'NONE',  ( 4.275831445896958607E-31, 1.000000000000000000, 1.224646799147353207E-16 ) ) ;
#257 = DIRECTION ( 'NONE',  ( 0.0000000000000000000, 1.000000000000000000, 0.0000000000000000000 ) ) ;
#258 = CYLINDRICAL_SURFACE ( 'NONE', #230, 1.500000000000000444 ) ;
#259 = AXIS2_PLACEMENT_3D ( 'NONE', #102, #144, #257 ) ;
#260 = CC_DESIGN_SECURITY_CLASSIFICATION ( #159, ( #302 ) ) ;
#261 = EDGE_LOOP ( 'NONE', ( #200 ) ) ;
#262 = DIRECTION ( 'NONE',  ( -3.491481338843133355E-15, 1.224646799147353207E-16, -1.000000000000000000 ) ) ;
#263 = EDGE_LOOP ( 'NONE', ( #245 ) ) ;
#264 = APPROVAL_STATUS ( 'not_yet_approved' ) ;
#265 = ORIENTED_EDGE ( 'NONE', *, *, #111, .F. ) ;
#266 = AXIS2_PLACEMENT_3D ( 'NONE', #126, #253, #128 ) ;
#267 = ORIENTED_EDGE ( 'NONE', *, *, #139, .F. ) ;
#268 = CC_DESIGN_APPROVAL ( #148, ( #209 ) ) ;
#269 = CARTESIAN_POINT ( 'NONE',  ( 1.326762908760390423E-13, -4.653657836759941941E-15, 38.00000000000000000 ) ) ;
#270 = APPLICATION_CONTEXT ( 'configuration controlled 3d designs of mechanical parts and assemblies' ) ;
#271 = ADVANCED_FACE ( 'NONE', ( #22, #184 ), #52, .T. ) ;
#272 = CALENDAR_DATE ( 2021, 1, 12 ) ;
#273 = ADVANCED_FACE ( 'NONE', ( #158, #247 ), #47, .T. ) ;
#274 = ORIENTED_EDGE ( 'NONE', *, *, #10, .F. ) ;
#275 = VERTEX_POINT ( 'NONE', #84 ) ;
#276 = CARTESIAN_POINT ( 'NONE',  ( 3.491481338843132369E-16, -1.224646799147352807E-17, 0.09999999999999996392 ) ) ;
#277 = VERTEX_POINT ( 'NONE', #136 ) ;
#278 = AXIS2_PLACEMENT_3D ( 'NONE', #43, #175, #255 ) ;
#279 = COORDINATED_UNIVERSAL_TIME_OFFSET ( 1, 0, .AHEAD. ) ;
#280 = AXIS2_PLACEMENT_3D ( 'NONE', #29, #36, #97 ) ;
#281 = APPROVAL_PERSON_ORGANIZATION ( #251, #57, #138 ) ;
#282 = MANIFOLD_SOLID_BREP ( 'Corps-Déplacer/Copier1[2]', #121 ) ;
#283 = DIRECTION ( 'NONE',  ( 4.531599869146442659E-31, 1.000000000000000000, 1.275531967630006725E-16 ) ) ;
#284 = CIRCLE ( 'NONE', #88, 0.4153844939755814147 ) ;
#285 = LOCAL_TIME ( 11, 39, 57.00000000000000000, #160 ) ;
#286 = CARTESIAN_POINT ( 'NONE',  ( 3.263591079328455776E-14, -1.144713656224131427E-15, 9.347296355333845952 ) ) ;
#287 = CARTESIAN_POINT ( 'NONE',  ( 1.745740669421566678E-14, 3.186989538156439206E-33, 5.000000000000000000 ) ) ;
#288 = CARTESIAN_POINT ( 'NONE',  ( -7.851815604382008437E-32, 2.754046181036651882E-33, -2.248849368613159295E-17 ) ) ;
#289 = FACE_OUTER_BOUND ( 'NONE', #85, .T. ) ;
#290 = CONICAL_SURFACE ( 'NONE', #156, 0.3849999999999996758, 0.5235987755983012581 ) ;
#291 = EDGE_LOOP ( 'NONE', ( #242 ) ) ;
#292 = DIRECTION ( 'NONE',  ( 0.0000000000000000000, 1.000000000000000000, 0.0000000000000000000 ) ) ;
#293 = VERTEX_POINT ( 'NONE', #155 ) ;
#294 = ORIENTED_EDGE ( 'NONE', *, *, #10, .T. ) ;
#295 = ADVANCED_FACE ( 'NONE', ( #93, #182 ), #117, .T. ) ;
#296 = CC_DESIGN_DATE_AND_TIME_ASSIGNMENT ( #137, #20, ( #159 ) ) ;
#297 = DIRECTION ( 'NONE',  ( -3.491481338843133355E-15, 1.224646799147353207E-16, -1.000000000000000000 ) ) ;
#298 = ORGANIZATION ( 'UNSPECIFIED', 'UNSPECIFIED', '' ) ;
#299 = DIRECTION ( 'NONE',  ( 4.275831445896959482E-31, 1.000000000000000000, 1.224646799147353207E-16 ) ) ;
#300 = APPROVAL_ROLE ( '' ) ;
#301 = AXIS2_PLACEMENT_3D ( 'NONE', #217, #197, #212 ) ;
#302 = PRODUCT_DEFINITION_FORMATION_WITH_SPECIFIED_SOURCE ( 'ANY', '', #108, .NOT_KNOWN. ) ;
#303 = PERSON_AND_ORGANIZATION_ROLE ( 'classification_officer' ) ;
ENDSEC;
END-ISO-10303-21;
