ISO-10303-21;
HEADER;
FILE_DESCRIPTION (( 'STEP AP203' ),
    '1' );
FILE_NAME ('200762.step',
    '2021-12-01T07:27:23',
    ( '' ),
    ( '' ),
    'SwSTEP 2.0',
    'SolidWorks 2019',
    '' );
FILE_SCHEMA (( 'CONFIG_CONTROL_DESIGN' ));
ENDSEC;

DATA;
#1 = DIRECTION ( 'NONE',  ( 0.0000000000000000000, 1.000000000000000000, 0.0000000000000000000 ) ) ;
#2 = VERTEX_POINT ( 'NONE', #112 ) ;
#3 = VERTEX_POINT ( 'NONE', #92 ) ;
#4 = DIRECTION ( 'NONE',  ( 4.275831445896958607E-31, 1.000000000000000000, 1.224646799147353207E-16 ) ) ;
#5 = APPROVAL ( #102, 'UNSPECIFIED' ) ;
#6 = MECHANICAL_CONTEXT ( 'NONE', #139, 'mechanical' ) ;
#7 = AXIS2_PLACEMENT_3D ( 'NONE', #269, #104, #174 ) ;
#8 = AXIS2_PLACEMENT_3D ( 'NONE', #180, #186, #49 ) ;
#9 = PERSON_AND_ORGANIZATION ( #182, #173 ) ;
#10 = EDGE_LOOP ( 'NONE', ( #84 ) ) ;
#11 = APPROVAL_PERSON_ORGANIZATION ( #273, #111, #189 ) ;
#12 = PERSON_AND_ORGANIZATION ( #182, #173 ) ;
#13 = ORIENTED_EDGE ( 'NONE', *, *, #255, .T. ) ;
#14 = ADVANCED_FACE ( 'NONE', ( #245, #175 ), #230, .T. ) ;
#15 = CARTESIAN_POINT ( 'NONE',  ( 1.326762908760390423E-13, -4.653657836759941941E-15, 38.00000000000000000 ) ) ;
#16 =( GEOMETRIC_REPRESENTATION_CONTEXT ( 3 ) GLOBAL_UNCERTAINTY_ASSIGNED_CONTEXT ( ( #232 ) ) GLOBAL_UNIT_ASSIGNED_CONTEXT ( ( #272, #251, #168 ) ) REPRESENTATION_CONTEXT ( 'NONE', 'WORKASPACE' ) );
#17 = FACE_BOUND ( 'NONE', #198, .T. ) ;
#18 = CARTESIAN_POINT ( 'NONE',  ( 0.0000000000000000000, 0.0000000000000000000, 0.0000000000000000000 ) ) ;
#19 = EDGE_CURVE ( 'NONE', #47, #47, #100, .T. ) ;
#20 = DIRECTION ( 'NONE',  ( -3.491481338843133355E-15, 1.224646799147353207E-16, -1.000000000000000000 ) ) ;
#21 = CIRCLE ( 'NONE', #225, 1.500000000000003331 ) ;
#22 = PLANE ( 'NONE',  #164 ) ;
#23 = DIRECTION ( 'NONE',  ( -3.491481338843133355E-15, 1.224646799147353207E-16, -1.000000000000000000 ) ) ;
#24 = FACE_OUTER_BOUND ( 'NONE', #122, .T. ) ;
#25 = CLOSED_SHELL ( 'NONE', ( #171, #217, #196, #216, #82, #14, #260 ) ) ;
#26 = FACE_BOUND ( 'NONE', #119, .T. ) ;
#27 = CARTESIAN_POINT ( 'NONE',  ( 5.091810812665066435E-14, 1.499999999999995559, 14.58352578322009840 ) ) ;
#28 = CC_DESIGN_DATE_AND_TIME_ASSIGNMENT ( #253, #74, ( #208 ) ) ;
#29 = CALENDAR_DATE ( 2021, 1, 12 ) ;
#30 = PERSON_AND_ORGANIZATION_ROLE ( 'design_owner' ) ;
#31 = AXIS2_PLACEMENT_3D ( 'NONE', #228, #156, #90 ) ;
#32 = APPROVAL_STATUS ( 'not_yet_approved' ) ;
#33 = PERSON_AND_ORGANIZATION_ROLE ( 'classification_officer' ) ;
#34 = AXIS2_PLACEMENT_3D ( 'NONE', #109, #264, #39 ) ;
#35 = CC_DESIGN_APPROVAL ( #202, ( #50 ) ) ;
#36 = EDGE_LOOP ( 'NONE', ( #52 ) ) ;
#37 = EDGE_CURVE ( 'NONE', #152, #152, #159, .T. ) ;
#38 = CARTESIAN_POINT ( 'NONE',  ( 1.326762908760390423E-13, -4.653657836759941941E-15, 38.00000000000000000 ) ) ;
#39 = DIRECTION ( 'NONE',  ( 0.0000000000000000000, 1.000000000000000000, 0.0000000000000000000 ) ) ;
#40 = AXIS2_PLACEMENT_3D ( 'NONE', #131, #23, #231 ) ;
#41 = CC_DESIGN_PERSON_AND_ORGANIZATION_ASSIGNMENT ( #9, #30, ( #145 ) ) ;
#42 = FACE_OUTER_BOUND ( 'NONE', #60, .T. ) ;
#43 = EDGE_LOOP ( 'NONE', ( #259 ) ) ;
#44 = CARTESIAN_POINT ( 'NONE',  ( 2.914442945444143071E-14, 0.4003844939755800136, 8.347296355333847728 ) ) ;
#45 = CC_DESIGN_SECURITY_CLASSIFICATION ( #221, ( #50 ) ) ;
#46 = PLANE ( 'NONE',  #274 ) ;
#47 = VERTEX_POINT ( 'NONE', #209 ) ;
#48 = EDGE_CURVE ( 'NONE', #155, #155, #199, .T. ) ;
#49 = DIRECTION ( 'NONE',  ( 3.903912049433596817E-31, 1.000000000000000000, 1.098853553194770999E-16 ) ) ;
#50 = PRODUCT_DEFINITION_FORMATION_WITH_SPECIFIED_SOURCE ( 'ANY', '', #145, .NOT_KNOWN. ) ;
#51 = APPROVAL_DATE_TIME ( #55, #5 ) ;
#52 = ORIENTED_EDGE ( 'NONE', *, *, #48, .F. ) ;
#53 = PERSON_AND_ORGANIZATION_ROLE ( 'creator' ) ;
#54 = LOCAL_TIME ( 8, 27, 23.00000000000000000, #117 ) ;
#55 = DATE_AND_TIME ( #213, #214 ) ;
#56 = EDGE_LOOP ( 'NONE', ( #166 ) ) ;
#57 = PERSON_AND_ORGANIZATION_ROLE ( 'design_supplier' ) ;
#58 = ADVANCED_FACE ( 'NONE', ( #129, #88 ), #265, .T. ) ;
#59 = AXIS2_PLACEMENT_3D ( 'NONE', #15, #20, #1 ) ;
#60 = EDGE_LOOP ( 'NONE', ( #13 ) ) ;
#61 = FACE_OUTER_BOUND ( 'NONE', #43, .T. ) ;
#62 = DIRECTION ( 'NONE',  ( -3.491481338843133355E-15, 1.224646799147353207E-16, -1.000000000000000000 ) ) ;
#63 = AXIS2_PLACEMENT_3D ( 'NONE', #195, #220, #241 ) ;
#64 = PLANE ( 'NONE',  #154 ) ;
#65 = CARTESIAN_POINT ( 'NONE',  ( 0.0000000000000000000, 0.3122649730810373447, 0.0000000000000000000 ) ) ;
#66 = DIRECTION ( 'NONE',  ( 4.275831445896958607E-31, 1.000000000000000000, 1.224646799147353207E-16 ) ) ;
#67 = EDGE_CURVE ( 'NONE', #2, #2, #21, .T. ) ;
#68 = DIRECTION ( 'NONE',  ( 0.0000000000000000000, 1.000000000000000000, 0.0000000000000000000 ) ) ;
#69 = CARTESIAN_POINT ( 'NONE',  ( 1.396592535537253342E-14, 2.774555597924424669E-33, 4.000000000000000000 ) ) ;
#70 = EDGE_CURVE ( 'NONE', #3, #3, #96, .T. ) ;
#71 = AXIS2_PLACEMENT_3D ( 'NONE', #222, #130, #89 ) ;
#72 = APPLICATION_PROTOCOL_DEFINITION ( 'international standard', 'config_control_design', 1994, #139 ) ;
#73 = AXIS2_PLACEMENT_3D ( 'NONE', #281, #151, #242 ) ;
#74 = DATE_TIME_ROLE ( 'creation_date' ) ;
#75 = EDGE_LOOP ( 'NONE', ( #83 ) ) ;
#76 = APPROVAL_ROLE ( '' ) ;
#77 = ORIENTED_EDGE ( 'NONE', *, *, #70, .T. ) ;
#78 = PERSON_AND_ORGANIZATION ( #182, #173 ) ;
#79 = APPLICATION_CONTEXT ( 'configuration controlled 3d designs of mechanical parts and assemblies' ) ;
#80 = CIRCLE ( 'NONE', #252, 0.4003844939755810128 ) ;
#81 = ORIENTED_EDGE ( 'NONE', *, *, #226, .F. ) ;
#82 = ADVANCED_FACE ( 'NONE', ( #61, #282 ), #149, .T. ) ;
#83 = ORIENTED_EDGE ( 'NONE', *, *, #37, .T. ) ;
#84 = ORIENTED_EDGE ( 'NONE', *, *, #19, .T. ) ;
#85 = CONICAL_SURFACE ( 'NONE', #31, 1.499999999999997113, 0.1745329251994260644 ) ;
#86 = ORIENTED_EDGE ( 'NONE', *, *, #268, .F. ) ;
#87 = DIRECTION ( 'NONE',  ( -3.491481338843133355E-15, 1.224646799147353207E-16, -1.000000000000000000 ) ) ;
#88 = FACE_OUTER_BOUND ( 'NONE', #223, .T. ) ;
#89 = DIRECTION ( 'NONE',  ( 0.0000000000000000000, 1.000000000000000000, 0.0000000000000000000 ) ) ;
#90 = DIRECTION ( 'NONE',  ( 0.0000000000000000000, -1.000000000000000000, 0.0000000000000000000 ) ) ;
#91 = AXIS2_PLACEMENT_3D ( 'NONE', #108, #197, #283 ) ;
#92 = CARTESIAN_POINT ( 'NONE',  ( 1.396592535537253342E-14, 0.3699999999999988853, 4.000000000000000000 ) ) ;
#93 = CC_DESIGN_PERSON_AND_ORGANIZATION_ASSIGNMENT ( #78, #57, ( #50 ) ) ;
#94 = CYLINDRICAL_SURFACE ( 'NONE', #40, 0.3699999999999995515 ) ;
#95 = FACE_OUTER_BOUND ( 'NONE', #36, .T. ) ;
#96 = CIRCLE ( 'NONE', #7, 0.3699999999999993849 ) ;
#97 = COORDINATED_UNIVERSAL_TIME_OFFSET ( 1, 0, .AHEAD. ) ;
#98 = DATE_AND_TIME ( #258, #191 ) ;
#99 = COORDINATED_UNIVERSAL_TIME_OFFSET ( 1, 0, .AHEAD. ) ;
#100 = CIRCLE ( 'NONE', #59, 1.200000000000003286 ) ;
#101 = EDGE_LOOP ( 'NONE', ( #144 ) ) ;
#102 = APPROVAL_STATUS ( 'not_yet_approved' ) ;
#103 = ORIENTED_EDGE ( 'NONE', *, *, #268, .T. ) ;
#104 = DIRECTION ( 'NONE',  ( -3.491481338843133355E-15, 1.224646799147353207E-16, -1.000000000000000000 ) ) ;
#105 = DIRECTION ( 'NONE',  ( 0.0000000000000000000, 1.000000000000000000, 0.0000000000000000000 ) ) ;
#106 = CC_DESIGN_APPROVAL ( #111, ( #208 ) ) ;
#107 = DIRECTION ( 'NONE',  ( -3.491481338843133355E-15, 1.224646799147353207E-16, -1.000000000000000000 ) ) ;
#108 = CARTESIAN_POINT ( 'NONE',  ( 3.491481338843132369E-16, -1.224646799147352807E-17, 0.09999999999999996392 ) ) ;
#109 = CARTESIAN_POINT ( 'NONE',  ( 5.091810812665066435E-14, -1.785966817070338911E-15, 14.58352578322009840 ) ) ;
#110 = EDGE_CURVE ( 'NONE', #115, #115, #210, .T. ) ;
#111 = APPROVAL ( #32, 'UNSPECIFIED' ) ;
#112 = CARTESIAN_POINT ( 'NONE',  ( 1.316288464743861212E-13, 1.499999999999998668, 37.69999999999999574 ) ) ;
#113 = VERTEX_POINT ( 'NONE', #44 ) ;
#114 = FACE_OUTER_BOUND ( 'NONE', #75, .T. ) ;
#115 = VERTEX_POINT ( 'NONE', #65 ) ;
#116 = DIRECTION ( 'NONE',  ( -3.491481338843133355E-15, 1.224646799147353207E-16, -1.000000000000000000 ) ) ;
#117 = COORDINATED_UNIVERSAL_TIME_OFFSET ( 1, 0, .AHEAD. ) ;
#118 = ADVANCED_FACE ( 'NONE', ( #150 ), #219, .F. ) ;
#119 = EDGE_LOOP ( 'NONE', ( #86 ) ) ;
#120 = PERSON_AND_ORGANIZATION ( #182, #173 ) ;
#121 = CALENDAR_DATE ( 2021, 1, 12 ) ;
#122 = EDGE_LOOP ( 'NONE', ( #125 ) ) ;
#123 = AXIS2_PLACEMENT_3D ( 'NONE', #227, #116, #4 ) ;
#124 = DIRECTION ( 'NONE',  ( 0.0000000000000000000, 1.000000000000000000, 0.0000000000000000000 ) ) ;
#125 = ORIENTED_EDGE ( 'NONE', *, *, #19, .F. ) ;
#126 = ADVANCED_BREP_SHAPE_REPRESENTATION ( '200762', ( #169, #170, #178 ), #16 ) ;
#127 = DIRECTION ( 'NONE',  ( -3.491481338843133355E-15, 1.224646799147353207E-16, -1.000000000000000000 ) ) ;
#128 = LOCAL_TIME ( 8, 27, 23.00000000000000000, #275 ) ;
#129 = FACE_OUTER_BOUND ( 'NONE', #101, .T. ) ;
#130 = DIRECTION ( 'NONE',  ( -3.491481338843133355E-15, 1.224646799147353207E-16, -1.000000000000000000 ) ) ;
#131 = CARTESIAN_POINT ( 'NONE',  ( 0.0000000000000000000, 0.0000000000000000000, 0.0000000000000000000 ) ) ;
#132 = VERTEX_POINT ( 'NONE', #201 ) ;
#133 = FACE_OUTER_BOUND ( 'NONE', #256, .T. ) ;
#134 = CARTESIAN_POINT ( 'NONE',  ( 2.793185071074506684E-14, 0.3699999999999987743, 8.000000000000000000 ) ) ;
#135 = AXIS2_PLACEMENT_3D ( 'NONE', #38, #87, #124 ) ;
#136 = DIRECTION ( 'NONE',  ( -3.491481338843133355E-15, 1.224646799147353207E-16, -1.000000000000000000 ) ) ;
#137 = PERSON_AND_ORGANIZATION_ROLE ( 'creator' ) ;
#138 = APPROVAL_DATE_TIME ( #215, #111 ) ;
#139 = APPLICATION_CONTEXT ( 'configuration controlled 3d designs of mechanical parts and assemblies' ) ;
#140 = SECURITY_CLASSIFICATION_LEVEL ( 'unclassified' ) ;
#141 = CIRCLE ( 'NONE', #206, 0.3699999999999993849 ) ;
#142 = CC_DESIGN_PERSON_AND_ORGANIZATION_ASSIGNMENT ( #12, #137, ( #208 ) ) ;
#143 = SHAPE_DEFINITION_REPRESENTATION ( #167, #126 ) ;
#144 = ORIENTED_EDGE ( 'NONE', *, *, #255, .F. ) ;
#145 = PRODUCT ( '200762', '200762', '', ( #6 ) ) ;
#146 = DIRECTION ( 'NONE',  ( 1.000000000000000000, 0.0000000000000000000, 0.0000000000000000000 ) ) ;
#147 = ORIENTED_EDGE ( 'NONE', *, *, #67, .F. ) ;
#148 = EDGE_LOOP ( 'NONE', ( #212 ) ) ;
#149 = CYLINDRICAL_SURFACE ( 'NONE', #280, 1.500000000000000222 ) ;
#150 = FACE_OUTER_BOUND ( 'NONE', #244, .T. ) ;
#151 = DIRECTION ( 'NONE',  ( 3.491481338843133355E-15, -1.224646799147353207E-16, 1.000000000000000000 ) ) ;
#152 = VERTEX_POINT ( 'NONE', #27 ) ;
#153 = FACE_OUTER_BOUND ( 'NONE', #238, .T. ) ;
#154 = AXIS2_PLACEMENT_3D ( 'NONE', #69, #184, #247 ) ;
#155 = VERTEX_POINT ( 'NONE', #134 ) ;
#156 = DIRECTION ( 'NONE',  ( 3.491481338843133355E-15, -1.224646799147353207E-16, 1.000000000000000000 ) ) ;
#157 = CARTESIAN_POINT ( 'NONE',  ( 2.914442945444143071E-14, -1.022248976309396476E-15, 8.347296355333847728 ) ) ;
#158 = CC_DESIGN_PERSON_AND_ORGANIZATION_ASSIGNMENT ( #234, #33, ( #221 ) ) ;
#159 = CIRCLE ( 'NONE', #34, 1.499999999999997113 ) ;
#160 = ADVANCED_FACE ( 'NONE', ( #17, #42 ), #236, .T. ) ;
#161 = APPLICATION_PROTOCOL_DEFINITION ( 'international standard', 'config_control_design', 1994, #79 ) ;
#162 = DATE_AND_TIME ( #29, #128 ) ;
#163 = APPROVAL_DATE_TIME ( #98, #202 ) ;
#164 = AXIS2_PLACEMENT_3D ( 'NONE', #250, #229, #66 ) ;
#165 = APPROVAL_ROLE ( '' ) ;
#166 = ORIENTED_EDGE ( 'NONE', *, *, #67, .T. ) ;
#167 = PRODUCT_DEFINITION_SHAPE ( 'NONE', 'NONE',  #208 ) ;
#168 =( NAMED_UNIT ( * ) SI_UNIT ( $, .STERADIAN. ) SOLID_ANGLE_UNIT ( ) );
#169 = MANIFOLD_SOLID_BREP ( 'Corps-Déplacer/Copier1[1]', #25 ) ;
#170 = MANIFOLD_SOLID_BREP ( 'Corps-Déplacer/Copier1[2]', #190 ) ;
#171 = ADVANCED_FACE ( 'NONE', ( #267 ), #64, .F. ) ;
#172 = DIRECTION ( 'NONE',  ( 4.275831445896959482E-31, 1.000000000000000000, 1.224646799147353207E-16 ) ) ;
#173 = ORGANIZATION ( 'UNSPECIFIED', 'UNSPECIFIED', '' ) ;
#174 = DIRECTION ( 'NONE',  ( 0.0000000000000000000, 1.000000000000000000, 0.0000000000000000000 ) ) ;
#175 = FACE_BOUND ( 'NONE', #10, .T. ) ;
#176 = CC_DESIGN_DATE_AND_TIME_ASSIGNMENT ( #162, #237, ( #221 ) ) ;
#177 = ORIENTED_EDGE ( 'NONE', *, *, #110, .F. ) ;
#178 = AXIS2_PLACEMENT_3D ( 'NONE', #188, #211, #146 ) ;
#179 = ORIENTED_EDGE ( 'NONE', *, *, #70, .F. ) ;
#180 = CARTESIAN_POINT ( 'NONE',  ( 3.491481338843132369E-16, -1.224646799147352807E-17, 0.09999999999999996392 ) ) ;
#181 = FACE_OUTER_BOUND ( 'NONE', #261, .T. ) ;
#182 = PERSON ( 'UNSPECIFIED', 'UNSPECIFIED', 'UNSPECIFIED', ('UNSPECIFIED'), ('UNSPECIFIED'), ('UNSPECIFIED') ) ;
#183 = LOCAL_TIME ( 8, 27, 23.00000000000000000, #97 ) ;
#184 = DIRECTION ( 'NONE',  ( 3.491481338843133355E-15, -1.224646799147353207E-16, 1.000000000000000000 ) ) ;
#185 = DIRECTION ( 'NONE',  ( 0.0000000000000000000, 1.000000000000000000, 0.0000000000000000000 ) ) ;
#186 = DIRECTION ( 'NONE',  ( -3.491481338843133355E-15, 1.224646799147353207E-16, -1.000000000000000000 ) ) ;
#187 = AXIS2_PLACEMENT_3D ( 'NONE', #18, #127, #218 ) ;
#188 = CARTESIAN_POINT ( 'NONE',  ( 0.0000000000000000000, 0.0000000000000000000, 0.0000000000000000000 ) ) ;
#189 = APPROVAL_ROLE ( '' ) ;
#190 = CLOSED_SHELL ( 'NONE', ( #118, #160, #58, #239 ) ) ;
#191 = LOCAL_TIME ( 8, 27, 23.00000000000000000, #99 ) ;
#192 = APPROVAL_STATUS ( 'not_yet_approved' ) ;
#193 = CC_DESIGN_PERSON_AND_ORGANIZATION_ASSIGNMENT ( #277, #53, ( #50 ) ) ;
#194 = CARTESIAN_POINT ( 'NONE',  ( 0.0000000000000000000, 0.0000000000000000000, 0.0000000000000000000 ) ) ;
#195 = CARTESIAN_POINT ( 'NONE',  ( -1.335192391352066547E-31, 4.683224481609273321E-33, -3.824142997695267806E-17 ) ) ;
#196 = ADVANCED_FACE ( 'NONE', ( #95, #181 ), #262, .F. ) ;
#197 = DIRECTION ( 'NONE',  ( 3.491481338843133355E-15, -1.224646799147353207E-16, 1.000000000000000000 ) ) ;
#198 = EDGE_LOOP ( 'NONE', ( #177 ) ) ;
#199 = CIRCLE ( 'NONE', #71, 0.3699999999999997735 ) ;
#200 = CC_DESIGN_APPROVAL ( #5, ( #221 ) ) ;
#201 = CARTESIAN_POINT ( 'NONE',  ( 3.491481338843133848E-16, 0.3699999999999989964, 0.1000000000000000056 ) ) ;
#202 = APPROVAL ( #192, 'UNSPECIFIED' ) ;
#203 = CARTESIAN_POINT ( 'NONE',  ( 1.396592535537253342E-14, 2.774555597924424669E-33, 4.000000000000000000 ) ) ;
#204 = DESIGN_CONTEXT ( 'detailed design', #79, 'design' ) ;
#205 = DIRECTION ( 'NONE',  ( 3.491481338843133355E-15, -1.224646799147353207E-16, 1.000000000000000000 ) ) ;
#206 = AXIS2_PLACEMENT_3D ( 'NONE', #271, #249, #185 ) ;
#207 = VERTEX_POINT ( 'NONE', #246 ) ;
#208 = PRODUCT_DEFINITION ( 'UNKNOWN', '', #50, #204 ) ;
#209 = CARTESIAN_POINT ( 'NONE',  ( 1.326762908760390423E-13, 1.199999999999998845, 38.00000000000000000 ) ) ;
#210 = CIRCLE ( 'NONE', #63, 0.3122649730810373447 ) ;
#211 = DIRECTION ( 'NONE',  ( 0.0000000000000000000, 0.0000000000000000000, 1.000000000000000000 ) ) ;
#212 = ORIENTED_EDGE ( 'NONE', *, *, #226, .T. ) ;
#213 = CALENDAR_DATE ( 2021, 1, 12 ) ;
#214 = LOCAL_TIME ( 8, 27, 23.00000000000000000, #254 ) ;
#215 = DATE_AND_TIME ( #276, #183 ) ;
#216 = ADVANCED_FACE ( 'NONE', ( #26, #114 ), #85, .T. ) ;
#217 = ADVANCED_FACE ( 'NONE', ( #270, #153 ), #94, .T. ) ;
#218 = DIRECTION ( 'NONE',  ( 4.275831445896958607E-31, 1.000000000000000000, 1.224646799147353207E-16 ) ) ;
#219 = PLANE ( 'NONE',  #73 ) ;
#220 = DIRECTION ( 'NONE',  ( -3.491481338843133355E-15, 1.224646799147353207E-16, -1.000000000000000000 ) ) ;
#221 = SECURITY_CLASSIFICATION ( '', '', #140 ) ;
#222 = CARTESIAN_POINT ( 'NONE',  ( 2.793185071074506684E-14, -9.797174393178825657E-16, 8.000000000000000000 ) ) ;
#223 = EDGE_LOOP ( 'NONE', ( #77 ) ) ;
#224 = DIRECTION ( 'NONE',  ( -4.275831445896958607E-31, -1.000000000000000000, -1.224646799147353207E-16 ) ) ;
#225 = AXIS2_PLACEMENT_3D ( 'NONE', #263, #107, #105 ) ;
#226 = EDGE_CURVE ( 'NONE', #207, #207, #141, .T. ) ;
#227 = CARTESIAN_POINT ( 'NONE',  ( 2.793185071074506684E-14, -8.673617379884035472E-16, 8.000000000000000000 ) ) ;
#228 = CARTESIAN_POINT ( 'NONE',  ( 5.091810812665066435E-14, -1.785966817070338911E-15, 14.58352578322009840 ) ) ;
#229 = DIRECTION ( 'NONE',  ( -3.491481338843133355E-15, 1.224646799147353207E-16, -1.000000000000000000 ) ) ;
#230 = CONICAL_SURFACE ( 'NONE', #135, 1.200000000000003286, 0.7853981633974453924 ) ;
#231 = DIRECTION ( 'NONE',  ( 4.275831445896958607E-31, 1.000000000000000000, 1.224646799147353207E-16 ) ) ;
#232 = UNCERTAINTY_MEASURE_WITH_UNIT (LENGTH_MEASURE( 1.000000000000000082E-05 ), #272, 'distance_accuracy_value', 'NONE');
#233 = PERSON_AND_ORGANIZATION ( #182, #173 ) ;
#234 = PERSON_AND_ORGANIZATION ( #182, #173 ) ;
#235 = ORIENTED_EDGE ( 'NONE', *, *, #48, .T. ) ;
#236 = CONICAL_SURFACE ( 'NONE', #91, 0.3699999999999989964, 0.5235987755982921543 ) ;
#237 = DATE_TIME_ROLE ( 'classification_date' ) ;
#238 = EDGE_LOOP ( 'NONE', ( #235 ) ) ;
#239 = ADVANCED_FACE ( 'NONE', ( #133 ), #46, .T. ) ;
#240 = EDGE_LOOP ( 'NONE', ( #147 ) ) ;
#241 = DIRECTION ( 'NONE',  ( 4.275831445896957731E-31, 1.000000000000000000, 1.224646799147353207E-16 ) ) ;
#242 = DIRECTION ( 'NONE',  ( -4.275831445896958607E-31, -1.000000000000000000, -1.224646799147353207E-16 ) ) ;
#243 = CIRCLE ( 'NONE', #8, 0.3699999999999989964 ) ;
#244 = EDGE_LOOP ( 'NONE', ( #257 ) ) ;
#245 = FACE_OUTER_BOUND ( 'NONE', #240, .T. ) ;
#246 = CARTESIAN_POINT ( 'NONE',  ( 1.396592535537253342E-14, 0.3699999999999988853, 4.000000000000000000 ) ) ;
#247 = DIRECTION ( 'NONE',  ( -4.275831445896958607E-31, -1.000000000000000000, -1.224646799147353207E-16 ) ) ;
#248 = APPROVAL_PERSON_ORGANIZATION ( #120, #5, #165 ) ;
#249 = DIRECTION ( 'NONE',  ( -3.491481338843133355E-15, 1.224646799147353207E-16, -1.000000000000000000 ) ) ;
#250 = CARTESIAN_POINT ( 'NONE',  ( 1.326762908760390423E-13, 8.998558695971103225E-33, 38.00000000000000000 ) ) ;
#251 =( NAMED_UNIT ( * ) PLANE_ANGLE_UNIT ( ) SI_UNIT ( $, .RADIAN. ) );
#252 = AXIS2_PLACEMENT_3D ( 'NONE', #157, #136, #68 ) ;
#253 = DATE_AND_TIME ( #121, #54 ) ;
#254 = COORDINATED_UNIVERSAL_TIME_OFFSET ( 1, 0, .AHEAD. ) ;
#255 = EDGE_CURVE ( 'NONE', #132, #132, #243, .T. ) ;
#256 = EDGE_LOOP ( 'NONE', ( #179 ) ) ;
#257 = ORIENTED_EDGE ( 'NONE', *, *, #110, .T. ) ;
#258 = CALENDAR_DATE ( 2021, 1, 12 ) ;
#259 = ORIENTED_EDGE ( 'NONE', *, *, #37, .F. ) ;
#260 = ADVANCED_FACE ( 'NONE', ( #24 ), #22, .F. ) ;
#261 = EDGE_LOOP ( 'NONE', ( #103 ) ) ;
#262 = TOROIDAL_SURFACE ( 'NONE', #123, 2.369999999999999662, 2.000000000000000000 ) ;
#263 = CARTESIAN_POINT ( 'NONE',  ( 1.316288464743861212E-13, -4.616918432785521081E-15, 37.69999999999999574 ) ) ;
#264 = DIRECTION ( 'NONE',  ( -3.491481338843133355E-15, 1.224646799147353207E-16, -1.000000000000000000 ) ) ;
#265 = CYLINDRICAL_SURFACE ( 'NONE', #187, 0.3699999999999992184 ) ;
#266 = APPROVAL_PERSON_ORGANIZATION ( #233, #202, #76 ) ;
#267 = FACE_OUTER_BOUND ( 'NONE', #148, .T. ) ;
#268 = EDGE_CURVE ( 'NONE', #113, #113, #80, .T. ) ;
#269 = CARTESIAN_POINT ( 'NONE',  ( 1.396592535537253342E-14, -4.898587196589412829E-16, 4.000000000000000000 ) ) ;
#270 = FACE_OUTER_BOUND ( 'NONE', #279, .T. ) ;
#271 = CARTESIAN_POINT ( 'NONE',  ( 1.396592535537253342E-14, -4.898587196589412829E-16, 4.000000000000000000 ) ) ;
#272 =( LENGTH_UNIT ( ) NAMED_UNIT ( * ) SI_UNIT ( .MILLI., .METRE. ) );
#273 = PERSON_AND_ORGANIZATION ( #182, #173 ) ;
#274 = AXIS2_PLACEMENT_3D ( 'NONE', #203, #205, #224 ) ;
#275 = COORDINATED_UNIVERSAL_TIME_OFFSET ( 1, 0, .AHEAD. ) ;
#276 = CALENDAR_DATE ( 2021, 1, 12 ) ;
#277 = PERSON_AND_ORGANIZATION ( #182, #173 ) ;
#278 = PRODUCT_RELATED_PRODUCT_CATEGORY ( 'detail', '', ( #145 ) ) ;
#279 = EDGE_LOOP ( 'NONE', ( #81 ) ) ;
#280 = AXIS2_PLACEMENT_3D ( 'NONE', #194, #62, #172 ) ;
#281 = CARTESIAN_POINT ( 'NONE',  ( -6.675961956760332734E-32, 2.341612240804636660E-33, -1.912071498847633903E-17 ) ) ;
#282 = FACE_OUTER_BOUND ( 'NONE', #56, .T. ) ;
#283 = DIRECTION ( 'NONE',  ( -3.903912049433596817E-31, -1.000000000000000000, -1.098853553194770999E-16 ) ) ;
ENDSEC;
END-ISO-10303-21;
