ISO-10303-21;
HEADER;
FILE_DESCRIPTION (( 'STEP AP203' ),
    '1' );
FILE_NAME ('200761.step',
    '2021-12-01T10:39:56',
    ( '' ),
    ( '' ),
    'SwSTEP 2.0',
    'SolidWorks 2019',
    '' );
FILE_SCHEMA (( 'CONFIG_CONTROL_DESIGN' ));
ENDSEC;

DATA;
#1 = EDGE_LOOP ( 'NONE', ( #26 ) ) ;
#2 = ORIENTED_EDGE ( 'NONE', *, *, #116, .T. ) ;
#3 = PRODUCT_DEFINITION ( 'UNKNOWN', '', #163, #20 ) ;
#4 = ORIENTED_EDGE ( 'NONE', *, *, #298, .F. ) ;
#5 = AXIS2_PLACEMENT_3D ( 'NONE', #234, #66, #233 ) ;
#6 = FACE_OUTER_BOUND ( 'NONE', #142, .T. ) ;
#7 = CARTESIAN_POINT ( 'NONE',  ( 3.491481338843131876E-16, -1.224646799147352653E-17, 0.09999999999999995004 ) ) ;
#8 = APPROVAL_ROLE ( '' ) ;
#9 = DIRECTION ( 'NONE',  ( 0.0000000000000000000, 1.000000000000000000, 0.0000000000000000000 ) ) ;
#10 =( GEOMETRIC_REPRESENTATION_CONTEXT ( 3 ) GLOBAL_UNCERTAINTY_ASSIGNED_CONTEXT ( ( #139 ) ) GLOBAL_UNIT_ASSIGNED_CONTEXT ( ( #64, #256, #39 ) ) REPRESENTATION_CONTEXT ( 'NONE', 'WORKASPACE' ) );
#11 = FACE_OUTER_BOUND ( 'NONE', #95, .T. ) ;
#12 = DATE_TIME_ROLE ( 'classification_date' ) ;
#13 = DIRECTION ( 'NONE',  ( -3.491481338843133355E-15, 1.224646799147353207E-16, -1.000000000000000000 ) ) ;
#14 = CC_DESIGN_PERSON_AND_ORGANIZATION_ASSIGNMENT ( #288, #54, ( #209 ) ) ;
#15 = APPROVAL_DATE_TIME ( #152, #148 ) ;
#16 = CARTESIAN_POINT ( 'NONE',  ( 1.316288464743861212E-13, 1.499999999999998668, 37.69999999999999574 ) ) ;
#17 = CIRCLE ( 'NONE', #130, 1.499999999999997113 ) ;
#18 = APPROVAL ( #176, 'UNSPECIFIED' ) ;
#19 = VERTEX_POINT ( 'NONE', #208 ) ;
#20 = DESIGN_CONTEXT ( 'detailed design', #149, 'design' ) ;
#21 = EDGE_LOOP ( 'NONE', ( #282 ) ) ;
#22 = EDGE_LOOP ( 'NONE', ( #194 ) ) ;
#23 = CC_DESIGN_APPROVAL ( #18, ( #163 ) ) ;
#24 = EDGE_LOOP ( 'NONE', ( #262 ) ) ;
#25 = ADVANCED_FACE ( 'NONE', ( #47 ), #28, .T. ) ;
#26 = ORIENTED_EDGE ( 'NONE', *, *, #193, .T. ) ;
#27 = ADVANCED_FACE ( 'NONE', ( #120, #45 ), #92, .T. ) ;
#28 = PLANE ( 'NONE',  #223 ) ;
#29 = DIRECTION ( 'NONE',  ( 0.0000000000000000000, 1.000000000000000000, 0.0000000000000000000 ) ) ;
#30 = CC_DESIGN_SECURITY_CLASSIFICATION ( #79, ( #163 ) ) ;
#31 = DIRECTION ( 'NONE',  ( -3.491481338843133355E-15, 1.224646799147353207E-16, -1.000000000000000000 ) ) ;
#32 = MECHANICAL_CONTEXT ( 'NONE', #140, 'mechanical' ) ;
#33 = FACE_BOUND ( 'NONE', #285, .T. ) ;
#34 = COORDINATED_UNIVERSAL_TIME_OFFSET ( 1, 0, .AHEAD. ) ;
#35 = DIRECTION ( 'NONE',  ( -3.491481338843133355E-15, 1.224646799147353207E-16, -1.000000000000000000 ) ) ;
#36 = PERSON_AND_ORGANIZATION ( #87, #187 ) ;
#37 = FACE_OUTER_BOUND ( 'NONE', #21, .T. ) ;
#38 = SECURITY_CLASSIFICATION_LEVEL ( 'unclassified' ) ;
#39 =( NAMED_UNIT ( * ) SI_UNIT ( $, .STERADIAN. ) SOLID_ANGLE_UNIT ( ) );
#40 = APPLICATION_PROTOCOL_DEFINITION ( 'international standard', 'config_control_design', 1994, #140 ) ;
#41 = CIRCLE ( 'NONE', #86, 0.3372649730810377555 ) ;
#42 = DIRECTION ( 'NONE',  ( -3.491481338843133355E-15, 1.224646799147353207E-16, -1.000000000000000000 ) ) ;
#43 = CIRCLE ( 'NONE', #65, 1.200000000000003286 ) ;
#44 = LOCAL_TIME ( 11, 39, 56.00000000000000000, #221 ) ;
#45 = FACE_BOUND ( 'NONE', #164, .T. ) ;
#46 = EDGE_LOOP ( 'NONE', ( #240 ) ) ;
#47 = FACE_OUTER_BOUND ( 'NONE', #264, .T. ) ;
#48 = CARTESIAN_POINT ( 'NONE',  ( 1.396592535537253342E-14, -4.898587196589412829E-16, 4.000000000000000000 ) ) ;
#49 = DIRECTION ( 'NONE',  ( 3.491481338843133355E-15, -1.224646799147353207E-16, 1.000000000000000000 ) ) ;
#50 = AXIS2_PLACEMENT_3D ( 'NONE', #225, #220, #103 ) ;
#51 = CIRCLE ( 'NONE', #137, 0.3950000000000000178 ) ;
#52 = CALENDAR_DATE ( 2021, 1, 12 ) ;
#53 = DIRECTION ( 'NONE',  ( 4.275831445896958607E-31, 1.000000000000000000, 1.224646799147353207E-16 ) ) ;
#54 = PERSON_AND_ORGANIZATION_ROLE ( 'design_owner' ) ;
#55 = CARTESIAN_POINT ( 'NONE',  ( -7.210440887497463726E-32, 2.529082213637372625E-33, -2.065152348741055796E-17 ) ) ;
#56 = PERSON_AND_ORGANIZATION ( #87, #187 ) ;
#57 = ADVANCED_FACE ( 'NONE', ( #97, #217 ), #101, .T. ) ;
#58 = CC_DESIGN_DATE_AND_TIME_ASSIGNMENT ( #126, #109, ( #3 ) ) ;
#59 = FACE_OUTER_BOUND ( 'NONE', #145, .T. ) ;
#60 = APPROVAL_PERSON_ORGANIZATION ( #245, #18, #61 ) ;
#61 = APPROVAL_ROLE ( '' ) ;
#62 = CARTESIAN_POINT ( 'NONE',  ( 1.414734804754918526E-14, -4.962221710912908580E-16, 4.051961524227067457 ) ) ;
#63 = ADVANCED_BREP_SHAPE_REPRESENTATION ( '200761', ( #167, #273, #172 ), #10 ) ;
#64 =( LENGTH_UNIT ( ) NAMED_UNIT ( * ) SI_UNIT ( .MILLI., .METRE. ) );
#65 = AXIS2_PLACEMENT_3D ( 'NONE', #242, #125, #110 ) ;
#66 = DIRECTION ( 'NONE',  ( 3.491481338843133355E-15, -1.224646799147353207E-16, 1.000000000000000000 ) ) ;
#67 = CARTESIAN_POINT ( 'NONE',  ( 1.414734804754918526E-14, 0.3649999999999989919, 4.051961524227067457 ) ) ;
#68 = EDGE_CURVE ( 'NONE', #301, #301, #277, .T. ) ;
#69 = DIRECTION ( 'NONE',  ( -4.275831445896958607E-31, -1.000000000000000000, -1.224646799147353207E-16 ) ) ;
#70 = ORIENTED_EDGE ( 'NONE', *, *, #299, .T. ) ;
#71 = CC_DESIGN_PERSON_AND_ORGANIZATION_ASSIGNMENT ( #84, #159, ( #3 ) ) ;
#72 = TOROIDAL_SURFACE ( 'NONE', #105, 2.364999999999999769, 2.000000000000000000 ) ;
#73 = CC_DESIGN_APPROVAL ( #148, ( #79 ) ) ;
#74 = ORIENTED_EDGE ( 'NONE', *, *, #246, .F. ) ;
#75 = EDGE_LOOP ( 'NONE', ( #260 ) ) ;
#76 = CARTESIAN_POINT ( 'NONE',  ( 2.793185071074506684E-14, -8.673617379884035472E-16, 8.000000000000000000 ) ) ;
#77 = DIRECTION ( 'NONE',  ( 0.0000000000000000000, 0.0000000000000000000, 1.000000000000000000 ) ) ;
#78 = FACE_OUTER_BOUND ( 'NONE', #143, .T. ) ;
#79 = SECURITY_CLASSIFICATION ( '', '', #38 ) ;
#80 = APPROVAL_DATE_TIME ( #154, #211 ) ;
#81 = FACE_OUTER_BOUND ( 'NONE', #283, .T. ) ;
#82 = CALENDAR_DATE ( 2021, 1, 12 ) ;
#83 = DIRECTION ( 'NONE',  ( 4.275831445896959482E-31, 1.000000000000000000, 1.224646799147353207E-16 ) ) ;
#84 = PERSON_AND_ORGANIZATION ( #87, #187 ) ;
#85 = CARTESIAN_POINT ( 'NONE',  ( 1.316288464743861212E-13, -4.616918432785521081E-15, 37.69999999999999574 ) ) ;
#86 = AXIS2_PLACEMENT_3D ( 'NONE', #150, #200, #106 ) ;
#87 = PERSON ( 'UNSPECIFIED', 'UNSPECIFIED', 'UNSPECIFIED', ('UNSPECIFIED'), ('UNSPECIFIED'), ('UNSPECIFIED') ) ;
#88 = AXIS2_PLACEMENT_3D ( 'NONE', #274, #162, #297 ) ;
#89 = CARTESIAN_POINT ( 'NONE',  ( 0.0000000000000000000, 0.3372649730810377555, 0.0000000000000000000 ) ) ;
#90 = CARTESIAN_POINT ( 'NONE',  ( 3.491481338843133848E-16, 0.3949999999999995182, 0.1000000000000000056 ) ) ;
#91 = DIRECTION ( 'NONE',  ( 0.0000000000000000000, 1.000000000000000000, 0.0000000000000000000 ) ) ;
#92 = CONICAL_SURFACE ( 'NONE', #165, 0.3649999999999994915, 0.5235987755982949299 ) ;
#93 = LOCAL_TIME ( 11, 39, 56.00000000000000000, #268 ) ;
#94 = PRODUCT_RELATED_PRODUCT_CATEGORY ( 'detail', '', ( #209 ) ) ;
#95 = EDGE_LOOP ( 'NONE', ( #239 ) ) ;
#96 = CIRCLE ( 'NONE', #300, 0.3953844939755814525 ) ;
#97 = FACE_OUTER_BOUND ( 'NONE', #236, .T. ) ;
#98 = EDGE_LOOP ( 'NONE', ( #70 ) ) ;
#99 = ORIENTED_EDGE ( 'NONE', *, *, #116, .F. ) ;
#100 = AXIS2_PLACEMENT_3D ( 'NONE', #62, #42, #207 ) ;
#101 = CYLINDRICAL_SURFACE ( 'NONE', #190, 0.3949999999999997402 ) ;
#102 = DIRECTION ( 'NONE',  ( 3.491481338843133355E-15, -1.224646799147353207E-16, 1.000000000000000000 ) ) ;
#103 = DIRECTION ( 'NONE',  ( 4.275831445896958607E-31, 1.000000000000000000, 1.224646799147353207E-16 ) ) ;
#104 = SHAPE_DEFINITION_REPRESENTATION ( #117, #63 ) ;
#105 = AXIS2_PLACEMENT_3D ( 'NONE', #76, #266, #53 ) ;
#106 = DIRECTION ( 'NONE',  ( 4.275831445896959482E-31, 1.000000000000000000, 1.224646799147353207E-16 ) ) ;
#107 = ADVANCED_FACE ( 'NONE', ( #81 ), #269, .F. ) ;
#108 = CARTESIAN_POINT ( 'NONE',  ( 0.0000000000000000000, 0.0000000000000000000, 0.0000000000000000000 ) ) ;
#109 = DATE_TIME_ROLE ( 'creation_date' ) ;
#110 = DIRECTION ( 'NONE',  ( 0.0000000000000000000, 1.000000000000000000, 0.0000000000000000000 ) ) ;
#111 = CALENDAR_DATE ( 2021, 1, 12 ) ;
#112 = CARTESIAN_POINT ( 'NONE',  ( 3.491481338843131876E-16, -1.224646799147352653E-17, 0.09999999999999995004 ) ) ;
#113 = DIRECTION ( 'NONE',  ( -3.491481338843133355E-15, 1.224646799147353207E-16, -1.000000000000000000 ) ) ;
#114 = CARTESIAN_POINT ( 'NONE',  ( 1.396592535537253342E-14, 0.3949999999999995182, 4.000000000000000000 ) ) ;
#115 = AXIS2_PLACEMENT_3D ( 'NONE', #219, #102, #286 ) ;
#116 = EDGE_CURVE ( 'NONE', #295, #295, #43, .T. ) ;
#117 = PRODUCT_DEFINITION_SHAPE ( 'NONE', 'NONE',  #3 ) ;
#118 = ORIENTED_EDGE ( 'NONE', *, *, #299, .F. ) ;
#119 = EDGE_LOOP ( 'NONE', ( #118 ) ) ;
#120 = FACE_OUTER_BOUND ( 'NONE', #119, .T. ) ;
#121 = ORIENTED_EDGE ( 'NONE', *, *, #246, .T. ) ;
#122 = DIRECTION ( 'NONE',  ( -3.491481338843133355E-15, 1.224646799147353207E-16, -1.000000000000000000 ) ) ;
#123 = ADVANCED_FACE ( 'NONE', ( #153, #244 ), #218, .T. ) ;
#124 = DIRECTION ( 'NONE',  ( 4.275831445896958607E-31, 1.000000000000000000, 1.224646799147353207E-16 ) ) ;
#125 = DIRECTION ( 'NONE',  ( -3.491481338843133355E-15, 1.224646799147353207E-16, -1.000000000000000000 ) ) ;
#126 = DATE_AND_TIME ( #111, #93 ) ;
#127 = EDGE_CURVE ( 'NONE', #252, #252, #17, .T. ) ;
#128 = CYLINDRICAL_SURFACE ( 'NONE', #293, 1.500000000000000222 ) ;
#129 = DATE_AND_TIME ( #156, #44 ) ;
#130 = AXIS2_PLACEMENT_3D ( 'NONE', #158, #247, #169 ) ;
#131 = DIRECTION ( 'NONE',  ( 0.0000000000000000000, 1.000000000000000000, 0.0000000000000000000 ) ) ;
#132 = APPROVAL_PERSON_ORGANIZATION ( #287, #148, #8 ) ;
#133 = APPLICATION_PROTOCOL_DEFINITION ( 'international standard', 'config_control_design', 1994, #149 ) ;
#134 = CYLINDRICAL_SURFACE ( 'NONE', #253, 0.3649999999999997691 ) ;
#135 = COORDINATED_UNIVERSAL_TIME_OFFSET ( 1, 0, .AHEAD. ) ;
#136 = DIRECTION ( 'NONE',  ( -3.491481338843133355E-15, 1.224646799147353207E-16, -1.000000000000000000 ) ) ;
#137 = AXIS2_PLACEMENT_3D ( 'NONE', #231, #136, #91 ) ;
#138 = VERTEX_POINT ( 'NONE', #183 ) ;
#139 = UNCERTAINTY_MEASURE_WITH_UNIT (LENGTH_MEASURE( 1.000000000000000082E-05 ), #64, 'distance_accuracy_value', 'NONE');
#140 = APPLICATION_CONTEXT ( 'configuration controlled 3d designs of mechanical parts and assemblies' ) ;
#141 = AXIS2_PLACEMENT_3D ( 'NONE', #55, #49, #151 ) ;
#142 = EDGE_LOOP ( 'NONE', ( #99 ) ) ;
#143 = EDGE_LOOP ( 'NONE', ( #216 ) ) ;
#144 = ORIENTED_EDGE ( 'NONE', *, *, #279, .T. ) ;
#145 = EDGE_LOOP ( 'NONE', ( #259 ) ) ;
#146 = EDGE_CURVE ( 'NONE', #235, #235, #41, .T. ) ;
#147 = EDGE_LOOP ( 'NONE', ( #281 ) ) ;
#148 = APPROVAL ( #272, 'UNSPECIFIED' ) ;
#149 = APPLICATION_CONTEXT ( 'configuration controlled 3d designs of mechanical parts and assemblies' ) ;
#150 = CARTESIAN_POINT ( 'NONE',  ( -1.442088177499492745E-31, 5.058164427274745249E-33, -4.130304697482111593E-17 ) ) ;
#151 = DIRECTION ( 'NONE',  ( -4.275831445896958607E-31, -1.000000000000000000, -1.224646799147353207E-16 ) ) ;
#152 = DATE_AND_TIME ( #230, #254 ) ;
#153 = FACE_BOUND ( 'NONE', #22, .T. ) ;
#154 = DATE_AND_TIME ( #82, #210 ) ;
#155 = DIRECTION ( 'NONE',  ( -4.875772011106931831E-31, -1.000000000000000000, -1.372407813272792005E-16 ) ) ;
#156 = CALENDAR_DATE ( 2021, 1, 12 ) ;
#157 = AXIS2_PLACEMENT_3D ( 'NONE', #289, #35, #131 ) ;
#158 = CARTESIAN_POINT ( 'NONE',  ( 5.101711399985324237E-14, -1.789439475634068094E-15, 14.61188219231818763 ) ) ;
#159 = PERSON_AND_ORGANIZATION_ROLE ( 'creator' ) ;
#160 = ADVANCED_FACE ( 'NONE', ( #173, #181 ), #72, .F. ) ;
#161 = CARTESIAN_POINT ( 'NONE',  ( 1.396592535537253342E-14, 0.3949999999999995182, 4.000000000000000000 ) ) ;
#162 = DIRECTION ( 'NONE',  ( -3.491481338843133355E-15, 1.224646799147353207E-16, -1.000000000000000000 ) ) ;
#163 = PRODUCT_DEFINITION_FORMATION_WITH_SPECIFIED_SOURCE ( 'ANY', '', #209, .NOT_KNOWN. ) ;
#164 = EDGE_LOOP ( 'NONE', ( #144 ) ) ;
#165 = AXIS2_PLACEMENT_3D ( 'NONE', #215, #122, #303 ) ;
#166 = ADVANCED_FACE ( 'NONE', ( #78, #33 ), #214, .T. ) ;
#167 = MANIFOLD_SOLID_BREP ( 'Corps-Déplacer/Copier1[1]', #199 ) ;
#168 = EDGE_LOOP ( 'NONE', ( #121 ) ) ;
#169 = DIRECTION ( 'NONE',  ( 0.0000000000000000000, 1.000000000000000000, 0.0000000000000000000 ) ) ;
#170 = AXIS2_PLACEMENT_3D ( 'NONE', #7, #291, #155 ) ;
#171 = APPROVAL_ROLE ( '' ) ;
#172 = AXIS2_PLACEMENT_3D ( 'NONE', #270, #77, #243 ) ;
#173 = FACE_OUTER_BOUND ( 'NONE', #237, .T. ) ;
#174 = APPROVAL_STATUS ( 'not_yet_approved' ) ;
#175 = DIRECTION ( 'NONE',  ( -3.491481338843133355E-15, 1.224646799147353207E-16, -1.000000000000000000 ) ) ;
#176 = APPROVAL_STATUS ( 'not_yet_approved' ) ;
#177 = DIRECTION ( 'NONE',  ( -3.491481338843133355E-15, 1.224646799147353207E-16, -1.000000000000000000 ) ) ;
#178 = DATE_AND_TIME ( #52, #258 ) ;
#179 = ADVANCED_FACE ( 'NONE', ( #6 ), #265, .F. ) ;
#180 = CLOSED_SHELL ( 'NONE', ( #107, #123, #57, #25 ) ) ;
#181 = FACE_OUTER_BOUND ( 'NONE', #147, .T. ) ;
#182 = CONICAL_SURFACE ( 'NONE', #5, 1.499999999999997113, 0.1745329251994259812 ) ;
#183 = CARTESIAN_POINT ( 'NONE',  ( 2.914442945444142440E-14, 0.3953844939755803978, 8.347296355333845952 ) ) ;
#184 = FACE_OUTER_BOUND ( 'NONE', #75, .T. ) ;
#185 = ADVANCED_FACE ( 'NONE', ( #11, #196 ), #128, .T. ) ;
#186 = CARTESIAN_POINT ( 'NONE',  ( 5.101711399985324237E-14, 1.499999999999995559, 14.61188219231818763 ) ) ;
#187 = ORGANIZATION ( 'UNSPECIFIED', 'UNSPECIFIED', '' ) ;
#188 = DIRECTION ( 'NONE',  ( 4.875772011106931831E-31, 1.000000000000000000, 1.372407813272792005E-16 ) ) ;
#189 = ORIENTED_EDGE ( 'NONE', *, *, #193, .F. ) ;
#190 = AXIS2_PLACEMENT_3D ( 'NONE', #191, #175, #198 ) ;
#191 = CARTESIAN_POINT ( 'NONE',  ( 0.0000000000000000000, 0.0000000000000000000, 0.0000000000000000000 ) ) ;
#192 = EDGE_CURVE ( 'NONE', #138, #138, #96, .T. ) ;
#193 = EDGE_CURVE ( 'NONE', #275, #275, #195, .T. ) ;
#194 = ORIENTED_EDGE ( 'NONE', *, *, #146, .F. ) ;
#195 = CIRCLE ( 'NONE', #248, 0.3950000000000000178 ) ;
#196 = FACE_OUTER_BOUND ( 'NONE', #46, .T. ) ;
#197 = PERSON_AND_ORGANIZATION_ROLE ( 'design_supplier' ) ;
#198 = DIRECTION ( 'NONE',  ( 4.275831445896958607E-31, 1.000000000000000000, 1.224646799147353207E-16 ) ) ;
#199 = CLOSED_SHELL ( 'NONE', ( #227, #27, #226, #160, #263, #185, #166, #179 ) ) ;
#200 = DIRECTION ( 'NONE',  ( -3.491481338843133355E-15, 1.224646799147353207E-16, -1.000000000000000000 ) ) ;
#201 = CC_DESIGN_DATE_AND_TIME_ASSIGNMENT ( #129, #12, ( #79 ) ) ;
#202 = PERSON_AND_ORGANIZATION ( #87, #187 ) ;
#203 = FACE_OUTER_BOUND ( 'NONE', #98, .T. ) ;
#204 = PERSON_AND_ORGANIZATION ( #87, #187 ) ;
#205 = CIRCLE ( 'NONE', #284, 0.3949999999999995182 ) ;
#206 = CARTESIAN_POINT ( 'NONE',  ( 1.326762908760390423E-13, 1.199999999999998845, 38.00000000000000000 ) ) ;
#207 = DIRECTION ( 'NONE',  ( 0.0000000000000000000, 1.000000000000000000, 0.0000000000000000000 ) ) ;
#208 = CARTESIAN_POINT ( 'NONE',  ( 2.793185071074506684E-14, 0.3649999999999989919, 8.000000000000000000 ) ) ;
#209 = PRODUCT ( '200761', '200761', '', ( #32 ) ) ;
#210 = LOCAL_TIME ( 11, 39, 56.00000000000000000, #290 ) ;
#211 = APPROVAL ( #174, 'UNSPECIFIED' ) ;
#212 = DIRECTION ( 'NONE',  ( 3.491481338843133355E-15, -1.224646799147353207E-16, 1.000000000000000000 ) ) ;
#213 = CARTESIAN_POINT ( 'NONE',  ( 1.396592535537253342E-14, 2.962025570757161317E-33, 4.000000000000000000 ) ) ;
#214 = CONICAL_SURFACE ( 'NONE', #157, 1.200000000000003286, 0.7853981633974453924 ) ;
#215 = CARTESIAN_POINT ( 'NONE',  ( 1.414734804754918526E-14, -4.962221710912908580E-16, 4.051961524227067457 ) ) ;
#216 = ORIENTED_EDGE ( 'NONE', *, *, #68, .F. ) ;
#217 = FACE_OUTER_BOUND ( 'NONE', #1, .T. ) ;
#218 = CONICAL_SURFACE ( 'NONE', #170, 0.3949999999999995182, 0.5235987755982927094 ) ;
#219 = CARTESIAN_POINT ( 'NONE',  ( 1.396592535537253342E-14, 2.962025570757161317E-33, 4.000000000000000000 ) ) ;
#220 = DIRECTION ( 'NONE',  ( -3.491481338843133355E-15, 1.224646799147353207E-16, -1.000000000000000000 ) ) ;
#221 = COORDINATED_UNIVERSAL_TIME_OFFSET ( 1, 0, .AHEAD. ) ;
#222 = DIRECTION ( 'NONE',  ( -3.491481338843133355E-15, 1.224646799147353207E-16, -1.000000000000000000 ) ) ;
#223 = AXIS2_PLACEMENT_3D ( 'NONE', #213, #212, #69 ) ;
#224 = CC_DESIGN_APPROVAL ( #211, ( #3 ) ) ;
#225 = CARTESIAN_POINT ( 'NONE',  ( 1.326762908760390423E-13, 8.998558695971103225E-33, 38.00000000000000000 ) ) ;
#226 = ADVANCED_FACE ( 'NONE', ( #59, #37 ), #134, .T. ) ;
#227 = ADVANCED_FACE ( 'NONE', ( #203 ), #292, .F. ) ;
#228 = APPROVAL_DATE_TIME ( #178, #18 ) ;
#229 = CARTESIAN_POINT ( 'NONE',  ( 0.0000000000000000000, 0.0000000000000000000, 0.0000000000000000000 ) ) ;
#230 = CALENDAR_DATE ( 2021, 1, 12 ) ;
#231 = CARTESIAN_POINT ( 'NONE',  ( 1.396592535537253342E-14, -4.898587196589412829E-16, 4.000000000000000000 ) ) ;
#232 = AXIS2_PLACEMENT_3D ( 'NONE', #85, #31, #29 ) ;
#233 = DIRECTION ( 'NONE',  ( 0.0000000000000000000, -1.000000000000000000, 0.0000000000000000000 ) ) ;
#234 = CARTESIAN_POINT ( 'NONE',  ( 5.101711399985324237E-14, -1.789439475634068094E-15, 14.61188219231818763 ) ) ;
#235 = VERTEX_POINT ( 'NONE', #89 ) ;
#236 = EDGE_LOOP ( 'NONE', ( #74 ) ) ;
#237 = EDGE_LOOP ( 'NONE', ( #4 ) ) ;
#238 = APPROVAL_PERSON_ORGANIZATION ( #56, #211, #171 ) ;
#239 = ORIENTED_EDGE ( 'NONE', *, *, #127, .F. ) ;
#240 = ORIENTED_EDGE ( 'NONE', *, *, #68, .T. ) ;
#241 = DIRECTION ( 'NONE',  ( -3.491481338843133355E-15, 1.224646799147353207E-16, -1.000000000000000000 ) ) ;
#242 = CARTESIAN_POINT ( 'NONE',  ( 1.326762908760390423E-13, -4.653657836759941941E-15, 38.00000000000000000 ) ) ;
#243 = DIRECTION ( 'NONE',  ( 1.000000000000000000, 0.0000000000000000000, 0.0000000000000000000 ) ) ;
#244 = FACE_OUTER_BOUND ( 'NONE', #168, .T. ) ;
#245 = PERSON_AND_ORGANIZATION ( #87, #187 ) ;
#246 = EDGE_CURVE ( 'NONE', #296, #296, #205, .T. ) ;
#247 = DIRECTION ( 'NONE',  ( -3.491481338843133355E-15, 1.224646799147353207E-16, -1.000000000000000000 ) ) ;
#248 = AXIS2_PLACEMENT_3D ( 'NONE', #48, #241, #271 ) ;
#249 = PERSON_AND_ORGANIZATION_ROLE ( 'creator' ) ;
#250 = CARTESIAN_POINT ( 'NONE',  ( 2.914442945444142440E-14, -1.022248976309396081E-15, 8.347296355333845952 ) ) ;
#251 = PERSON_AND_ORGANIZATION_ROLE ( 'classification_officer' ) ;
#252 = VERTEX_POINT ( 'NONE', #186 ) ;
#253 = AXIS2_PLACEMENT_3D ( 'NONE', #229, #13, #124 ) ;
#254 = LOCAL_TIME ( 11, 39, 56.00000000000000000, #135 ) ;
#255 = FACE_BOUND ( 'NONE', #24, .T. ) ;
#256 =( NAMED_UNIT ( * ) PLANE_ANGLE_UNIT ( ) SI_UNIT ( $, .RADIAN. ) );
#257 = CC_DESIGN_PERSON_AND_ORGANIZATION_ASSIGNMENT ( #204, #197, ( #163 ) ) ;
#258 = LOCAL_TIME ( 11, 39, 56.00000000000000000, #34 ) ;
#259 = ORIENTED_EDGE ( 'NONE', *, *, #279, .F. ) ;
#260 = ORIENTED_EDGE ( 'NONE', *, *, #127, .T. ) ;
#261 = ORIENTED_EDGE ( 'NONE', *, *, #146, .T. ) ;
#262 = ORIENTED_EDGE ( 'NONE', *, *, #192, .F. ) ;
#263 = ADVANCED_FACE ( 'NONE', ( #255, #184 ), #182, .T. ) ;
#264 = EDGE_LOOP ( 'NONE', ( #189 ) ) ;
#265 = PLANE ( 'NONE',  #50 ) ;
#266 = DIRECTION ( 'NONE',  ( -3.491481338843133355E-15, 1.224646799147353207E-16, -1.000000000000000000 ) ) ;
#267 = CC_DESIGN_PERSON_AND_ORGANIZATION_ASSIGNMENT ( #202, #249, ( #163 ) ) ;
#268 = COORDINATED_UNIVERSAL_TIME_OFFSET ( 1, 0, .AHEAD. ) ;
#269 = PLANE ( 'NONE',  #141 ) ;
#270 = CARTESIAN_POINT ( 'NONE',  ( 0.0000000000000000000, 0.0000000000000000000, 0.0000000000000000000 ) ) ;
#271 = DIRECTION ( 'NONE',  ( 0.0000000000000000000, 1.000000000000000000, 0.0000000000000000000 ) ) ;
#272 = APPROVAL_STATUS ( 'not_yet_approved' ) ;
#273 = MANIFOLD_SOLID_BREP ( 'Corps-Déplacer/Copier1[2]', #180 ) ;
#274 = CARTESIAN_POINT ( 'NONE',  ( 2.793185071074506684E-14, -9.797174393178825657E-16, 8.000000000000000000 ) ) ;
#275 = VERTEX_POINT ( 'NONE', #161 ) ;
#276 = VERTEX_POINT ( 'NONE', #114 ) ;
#277 = CIRCLE ( 'NONE', #232, 1.500000000000003331 ) ;
#278 = CC_DESIGN_PERSON_AND_ORGANIZATION_ASSIGNMENT ( #36, #251, ( #79 ) ) ;
#279 = EDGE_CURVE ( 'NONE', #280, #280, #302, .T. ) ;
#280 = VERTEX_POINT ( 'NONE', #67 ) ;
#281 = ORIENTED_EDGE ( 'NONE', *, *, #192, .T. ) ;
#282 = ORIENTED_EDGE ( 'NONE', *, *, #298, .T. ) ;
#283 = EDGE_LOOP ( 'NONE', ( #261 ) ) ;
#284 = AXIS2_PLACEMENT_3D ( 'NONE', #112, #113, #188 ) ;
#285 = EDGE_LOOP ( 'NONE', ( #2 ) ) ;
#286 = DIRECTION ( 'NONE',  ( -4.275831445896958607E-31, -1.000000000000000000, -1.224646799147353207E-16 ) ) ;
#287 = PERSON_AND_ORGANIZATION ( #87, #187 ) ;
#288 = PERSON_AND_ORGANIZATION ( #87, #187 ) ;
#289 = CARTESIAN_POINT ( 'NONE',  ( 1.326762908760390423E-13, -4.653657836759941941E-15, 38.00000000000000000 ) ) ;
#290 = COORDINATED_UNIVERSAL_TIME_OFFSET ( 1, 0, .AHEAD. ) ;
#291 = DIRECTION ( 'NONE',  ( 3.491481338843133355E-15, -1.224646799147353207E-16, 1.000000000000000000 ) ) ;
#292 = PLANE ( 'NONE',  #115 ) ;
#293 = AXIS2_PLACEMENT_3D ( 'NONE', #108, #222, #83 ) ;
#294 = CIRCLE ( 'NONE', #88, 0.3649999999999999911 ) ;
#295 = VERTEX_POINT ( 'NONE', #206 ) ;
#296 = VERTEX_POINT ( 'NONE', #90 ) ;
#297 = DIRECTION ( 'NONE',  ( 0.0000000000000000000, 1.000000000000000000, 0.0000000000000000000 ) ) ;
#298 = EDGE_CURVE ( 'NONE', #19, #19, #294, .T. ) ;
#299 = EDGE_CURVE ( 'NONE', #276, #276, #51, .T. ) ;
#300 = AXIS2_PLACEMENT_3D ( 'NONE', #250, #177, #9 ) ;
#301 = VERTEX_POINT ( 'NONE', #16 ) ;
#302 = CIRCLE ( 'NONE', #100, 0.3649999999999994915 ) ;
#303 = DIRECTION ( 'NONE',  ( 0.0000000000000000000, 1.000000000000000000, 0.0000000000000000000 ) ) ;
ENDSEC;
END-ISO-10303-21;
