ISO-10303-21;
HEADER;
FILE_DESCRIPTION (( 'STEP AP203' ),
    '1' );
FILE_NAME ('200760.step',
    '2021-12-01T10:39:56',
    ( '' ),
    ( '' ),
    'SwSTEP 2.0',
    'SolidWorks 2019',
    '' );
FILE_SCHEMA (( 'CONFIG_CONTROL_DESIGN' ));
ENDSEC;

DATA;
#1 = EDGE_CURVE ( 'NONE', #139, #139, #285, .T. ) ;
#2 = CARTESIAN_POINT ( 'NONE',  ( 1.316288464743861212E-13, 1.499999999999998668, 37.69999999999999574 ) ) ;
#3 = VERTEX_POINT ( 'NONE', #143 ) ;
#4 = CC_DESIGN_PERSON_AND_ORGANIZATION_ASSIGNMENT ( #47, #96, ( #32 ) ) ;
#5 = CARTESIAN_POINT ( 'NONE',  ( 1.326762908760390423E-13, -4.653657836759941941E-15, 38.00000000000000000 ) ) ;
#6 = DATE_AND_TIME ( #122, #45 ) ;
#7 = DIRECTION ( 'NONE',  ( 0.0000000000000000000, 1.000000000000000000, 0.0000000000000000000 ) ) ;
#8 = AXIS2_PLACEMENT_3D ( 'NONE', #165, #92, #187 ) ;
#9 = ORIENTED_EDGE ( 'NONE', *, *, #10, .T. ) ;
#10 = EDGE_CURVE ( 'NONE', #119, #119, #90, .T. ) ;
#11 = SHAPE_DEFINITION_REPRESENTATION ( #131, #268 ) ;
#12 = EDGE_LOOP ( 'NONE', ( #249 ) ) ;
#13 = APPROVAL_DATE_TIME ( #6, #40 ) ;
#14 = ORIENTED_EDGE ( 'NONE', *, *, #1, .F. ) ;
#15 = FACE_OUTER_BOUND ( 'NONE', #274, .T. ) ;
#16 = TOROIDAL_SURFACE ( 'NONE', #190, 2.354999999999999982, 2.000000000000000000 ) ;
#17 = FACE_OUTER_BOUND ( 'NONE', #128, .T. ) ;
#18 = CARTESIAN_POINT ( 'NONE',  ( 2.793185071074506684E-14, -9.797174393178825657E-16, 8.000000000000000000 ) ) ;
#19 = CARTESIAN_POINT ( 'NONE',  ( 3.491481338843132862E-16, -1.224646799147352961E-17, 0.09999999999999997780 ) ) ;
#20 = DIRECTION ( 'NONE',  ( 4.275831445896958607E-31, 1.000000000000000000, 1.224646799147352961E-16 ) ) ;
#21 =( LENGTH_UNIT ( ) NAMED_UNIT ( * ) SI_UNIT ( .MILLI., .METRE. ) );
#22 = EDGE_CURVE ( 'NONE', #118, #118, #194, .T. ) ;
#23 = AXIS2_PLACEMENT_3D ( 'NONE', #232, #91, #229 ) ;
#24 = CARTESIAN_POINT ( 'NONE',  ( 2.793185071074506684E-14, 0.3549999999999989830, 8.000000000000000000 ) ) ;
#25 = CC_DESIGN_PERSON_AND_ORGANIZATION_ASSIGNMENT ( #33, #126, ( #256 ) ) ;
#26 = DATE_TIME_ROLE ( 'creation_date' ) ;
#27 = DATE_AND_TIME ( #50, #199 ) ;
#28 = PERSON_AND_ORGANIZATION_ROLE ( 'creator' ) ;
#29 = EDGE_LOOP ( 'NONE', ( #82 ) ) ;
#30 = DATE_TIME_ROLE ( 'classification_date' ) ;
#31 = DIRECTION ( 'NONE',  ( -3.491481338843133355E-15, 1.224646799147353207E-16, -1.000000000000000000 ) ) ;
#32 = PRODUCT ( '200760', '200760', '', ( #263 ) ) ;
#33 = PERSON_AND_ORGANIZATION ( #271, #280 ) ;
#34 = AXIS2_PLACEMENT_3D ( 'NONE', #206, #235, #20 ) ;
#35 = ORIENTED_EDGE ( 'NONE', *, *, #123, .F. ) ;
#36 = EDGE_LOOP ( 'NONE', ( #145 ) ) ;
#37 = APPROVAL ( #217, 'UNSPECIFIED' ) ;
#38 = EDGE_LOOP ( 'NONE', ( #151 ) ) ;
#39 = FACE_OUTER_BOUND ( 'NONE', #53, .T. ) ;
#40 = APPROVAL ( #196, 'UNSPECIFIED' ) ;
#41 = PLANE ( 'NONE',  #23 ) ;
#42 = FACE_OUTER_BOUND ( 'NONE', #245, .T. ) ;
#43 = CARTESIAN_POINT ( 'NONE',  ( 1.396592535537253342E-14, -4.898587196589412829E-16, 4.000000000000000000 ) ) ;
#44 = AXIS2_PLACEMENT_3D ( 'NONE', #152, #31, #125 ) ;
#45 = LOCAL_TIME ( 11, 39, 56.00000000000000000, #227 ) ;
#46 = DIRECTION ( 'NONE',  ( 3.751811579975138817E-31, 1.000000000000000000, 1.056041077096271689E-16 ) ) ;
#47 = PERSON_AND_ORGANIZATION ( #271, #280 ) ;
#48 = APPROVAL_PERSON_ORGANIZATION ( #188, #160, #75 ) ;
#49 = PERSON_AND_ORGANIZATION ( #271, #280 ) ;
#50 = CALENDAR_DATE ( 2021, 1, 12 ) ;
#51 = PRODUCT_RELATED_PRODUCT_CATEGORY ( 'detail', '', ( #32 ) ) ;
#52 = FACE_BOUND ( 'NONE', #292, .T. ) ;
#53 = EDGE_LOOP ( 'NONE', ( #35 ) ) ;
#54 = ADVANCED_FACE ( 'NONE', ( #253, #198 ), #16, .F. ) ;
#55 = DIRECTION ( 'NONE',  ( 4.275831445896958607E-31, 1.000000000000000000, 1.224646799147353207E-16 ) ) ;
#56 = PERSON_AND_ORGANIZATION_ROLE ( 'design_supplier' ) ;
#57 = CC_DESIGN_APPROVAL ( #160, ( #148 ) ) ;
#58 = AXIS2_PLACEMENT_3D ( 'NONE', #105, #254, #59 ) ;
#59 = DIRECTION ( 'NONE',  ( 0.0000000000000000000, 1.000000000000000000, 0.0000000000000000000 ) ) ;
#60 = EDGE_LOOP ( 'NONE', ( #158 ) ) ;
#61 = DIRECTION ( 'NONE',  ( -3.491481338843133355E-15, 1.224646799147353207E-16, -1.000000000000000000 ) ) ;
#62 = DIRECTION ( 'NONE',  ( 0.0000000000000000000, 1.000000000000000000, 0.0000000000000000000 ) ) ;
#63 = APPROVAL_PERSON_ORGANIZATION ( #120, #37, #273 ) ;
#64 = ADVANCED_FACE ( 'NONE', ( #129, #76 ), #79, .T. ) ;
#65 = DIRECTION ( 'NONE',  ( 0.0000000000000000000, 1.000000000000000000, 0.0000000000000000000 ) ) ;
#66 = CYLINDRICAL_SURFACE ( 'NONE', #108, 0.3849999999999998423 ) ;
#67 = DIRECTION ( 'NONE',  ( 3.491481338843133355E-15, -1.224646799147353207E-16, 1.000000000000000000 ) ) ;
#68 = AXIS2_PLACEMENT_3D ( 'NONE', #137, #231, #46 ) ;
#69 = ADVANCED_FACE ( 'NONE', ( #179, #52 ), #239, .T. ) ;
#70 = DESIGN_CONTEXT ( 'detailed design', #275, 'design' ) ;
#71 = VERTEX_POINT ( 'NONE', #97 ) ;
#72 = CARTESIAN_POINT ( 'NONE',  ( 5.121512574625840472E-14, 1.499999999999995559, 14.66859501051436432 ) ) ;
#73 = DIRECTION ( 'NONE',  ( 1.000000000000000000, 0.0000000000000000000, 0.0000000000000000000 ) ) ;
#74 = CC_DESIGN_DATE_AND_TIME_ASSIGNMENT ( #203, #30, ( #256 ) ) ;
#75 = APPROVAL_ROLE ( '' ) ;
#76 = FACE_BOUND ( 'NONE', #174, .T. ) ;
#77 = EDGE_CURVE ( 'NONE', #3, #3, #230, .T. ) ;
#78 = CIRCLE ( 'NONE', #295, 0.3850000000000000089 ) ;
#79 = CONICAL_SURFACE ( 'NONE', #193, 1.200000000000003286, 0.7853981633974453924 ) ;
#80 = ORIENTED_EDGE ( 'NONE', *, *, #236, .F. ) ;
#81 = ORIENTED_EDGE ( 'NONE', *, *, #22, .F. ) ;
#82 = ORIENTED_EDGE ( 'NONE', *, *, #132, .F. ) ;
#83 = DIRECTION ( 'NONE',  ( -3.491481338843133355E-15, 1.224646799147353207E-16, -1.000000000000000000 ) ) ;
#84 = FACE_OUTER_BOUND ( 'NONE', #250, .T. ) ;
#85 = DIRECTION ( 'NONE',  ( 4.275831445896958607E-31, 1.000000000000000000, 1.224646799147352961E-16 ) ) ;
#86 = ADVANCED_FACE ( 'NONE', ( #84, #15 ), #88, .T. ) ;
#87 = EDGE_CURVE ( 'NONE', #303, #303, #209, .T. ) ;
#88 = CYLINDRICAL_SURFACE ( 'NONE', #130, 1.500000000000000222 ) ;
#89 = CIRCLE ( 'NONE', #138, 0.3850000000000000089 ) ;
#90 = CIRCLE ( 'NONE', #299, 1.500000000000003331 ) ;
#91 = DIRECTION ( 'NONE',  ( -3.491481338843133355E-15, 1.224646799147353207E-16, -1.000000000000000000 ) ) ;
#92 = DIRECTION ( 'NONE',  ( 3.491481338843133355E-15, -1.224646799147353207E-16, 1.000000000000000000 ) ) ;
#93 = CC_DESIGN_DATE_AND_TIME_ASSIGNMENT ( #27, #26, ( #148 ) ) ;
#94 = VERTEX_POINT ( 'NONE', #168 ) ;
#95 = ORIENTED_EDGE ( 'NONE', *, *, #77, .T. ) ;
#96 = PERSON_AND_ORGANIZATION_ROLE ( 'design_owner' ) ;
#97 = CARTESIAN_POINT ( 'NONE',  ( 1.396592535537253342E-14, 0.3849999999999995648, 4.000000000000000000 ) ) ;
#98 = CONICAL_SURFACE ( 'NONE', #251, 1.499999999999997113, 0.1745329251994260367 ) ;
#99 = DIRECTION ( 'NONE',  ( 0.0000000000000000000, 1.000000000000000000, 0.0000000000000000000 ) ) ;
#100 = PERSON_AND_ORGANIZATION ( #271, #280 ) ;
#101 = ORIENTED_EDGE ( 'NONE', *, *, #123, .T. ) ;
#102 = CC_DESIGN_PERSON_AND_ORGANIZATION_ASSIGNMENT ( #49, #170, ( #148 ) ) ;
#103 = CC_DESIGN_SECURITY_CLASSIFICATION ( #256, ( #265 ) ) ;
#104 = EDGE_LOOP ( 'NONE', ( #127 ) ) ;
#105 = CARTESIAN_POINT ( 'NONE',  ( 2.914442945444142440E-14, -1.022248976309396081E-15, 8.347296355333845952 ) ) ;
#106 = APPROVAL_ROLE ( '' ) ;
#107 = DIRECTION ( 'NONE',  ( -3.491481338843133355E-15, 1.224646799147353207E-16, -1.000000000000000000 ) ) ;
#108 = AXIS2_PLACEMENT_3D ( 'NONE', #296, #116, #85 ) ;
#109 = CLOSED_SHELL ( 'NONE', ( #258, #247, #185, #112 ) ) ;
#110 = DIRECTION ( 'NONE',  ( 0.0000000000000000000, 1.000000000000000000, 0.0000000000000000000 ) ) ;
#111 = CYLINDRICAL_SURFACE ( 'NONE', #34, 0.3549999999999997602 ) ;
#112 = ADVANCED_FACE ( 'NONE', ( #39 ), #260, .T. ) ;
#113 = DIRECTION ( 'NONE',  ( -3.491481338843133355E-15, 1.224646799147353207E-16, -1.000000000000000000 ) ) ;
#114 = DIRECTION ( 'NONE',  ( 3.491481338843133355E-15, -1.224646799147353207E-16, 1.000000000000000000 ) ) ;
#115 = CIRCLE ( 'NONE', #284, 1.499999999999997113 ) ;
#116 = DIRECTION ( 'NONE',  ( -3.491481338843133355E-15, 1.224646799147353207E-16, -1.000000000000000000 ) ) ;
#117 =( NAMED_UNIT ( * ) SI_UNIT ( $, .STERADIAN. ) SOLID_ANGLE_UNIT ( ) );
#118 = VERTEX_POINT ( 'NONE', #244 ) ;
#119 = VERTEX_POINT ( 'NONE', #2 ) ;
#120 = PERSON_AND_ORGANIZATION ( #271, #280 ) ;
#121 = AXIS2_PLACEMENT_3D ( 'NONE', #205, #259, #161 ) ;
#122 = CALENDAR_DATE ( 2021, 1, 12 ) ;
#123 = EDGE_CURVE ( 'NONE', #94, #94, #78, .T. ) ;
#124 = ORIENTED_EDGE ( 'NONE', *, *, #278, .F. ) ;
#125 = DIRECTION ( 'NONE',  ( 0.0000000000000000000, 1.000000000000000000, 0.0000000000000000000 ) ) ;
#126 = PERSON_AND_ORGANIZATION_ROLE ( 'classification_officer' ) ;
#127 = ORIENTED_EDGE ( 'NONE', *, *, #22, .T. ) ;
#128 = EDGE_LOOP ( 'NONE', ( #80 ) ) ;
#129 = FACE_OUTER_BOUND ( 'NONE', #38, .T. ) ;
#130 = AXIS2_PLACEMENT_3D ( 'NONE', #255, #61, #283 ) ;
#131 = PRODUCT_DEFINITION_SHAPE ( 'NONE', 'NONE',  #148 ) ;
#132 = EDGE_CURVE ( 'NONE', #237, #237, #176, .T. ) ;
#133 = DIRECTION ( 'NONE',  ( -3.491481338843133355E-15, 1.224646799147353207E-16, -1.000000000000000000 ) ) ;
#134 = APPROVAL_PERSON_ORGANIZATION ( #157, #40, #106 ) ;
#135 = DIRECTION ( 'NONE',  ( 0.0000000000000000000, -1.000000000000000000, 0.0000000000000000000 ) ) ;
#136 = CARTESIAN_POINT ( 'NONE',  ( 5.121512574625840472E-14, -1.796384792761525277E-15, 14.66859501051436432 ) ) ;
#137 = CARTESIAN_POINT ( 'NONE',  ( 3.491481338843132862E-16, -1.224646799147352961E-17, 0.09999999999999997780 ) ) ;
#138 = AXIS2_PLACEMENT_3D ( 'NONE', #262, #215, #99 ) ;
#139 = VERTEX_POINT ( 'NONE', #191 ) ;
#140 = APPLICATION_PROTOCOL_DEFINITION ( 'international standard', 'config_control_design', 1994, #275 ) ;
#141 = VERTEX_POINT ( 'NONE', #286 ) ;
#142 = ADVANCED_FACE ( 'NONE', ( #17, #42 ), #111, .T. ) ;
#143 = CARTESIAN_POINT ( 'NONE',  ( 1.326762908760390423E-13, 1.199999999999998845, 38.00000000000000000 ) ) ;
#144 = MANIFOLD_SOLID_BREP ( 'Corps-Déplacer/Copier1[1]', #182 ) ;
#145 = ORIENTED_EDGE ( 'NONE', *, *, #87, .F. ) ;
#146 = MANIFOLD_SOLID_BREP ( 'Corps-Déplacer/Copier1[2]', #109 ) ;
#147 = DIRECTION ( 'NONE',  ( 0.0000000000000000000, 0.0000000000000000000, 1.000000000000000000 ) ) ;
#148 = PRODUCT_DEFINITION ( 'UNKNOWN', '', #265, #70 ) ;
#149 = CALENDAR_DATE ( 2021, 1, 12 ) ;
#150 = CONICAL_SURFACE ( 'NONE', #240, 0.3849999999999995648, 0.5235987755982927094 ) ;
#151 = ORIENTED_EDGE ( 'NONE', *, *, #10, .F. ) ;
#152 = CARTESIAN_POINT ( 'NONE',  ( 1.326762908760390423E-13, -4.653657836759941941E-15, 38.00000000000000000 ) ) ;
#153 = DIRECTION ( 'NONE',  ( -3.491481338843133355E-15, 1.224646799147353207E-16, -1.000000000000000000 ) ) ;
#154 = CC_DESIGN_PERSON_AND_ORGANIZATION_ASSIGNMENT ( #100, #28, ( #265 ) ) ;
#155 = AXIS2_PLACEMENT_3D ( 'NONE', #183, #281, #65 ) ;
#156 = LOCAL_TIME ( 11, 39, 56.00000000000000000, #178 ) ;
#157 = PERSON_AND_ORGANIZATION ( #271, #280 ) ;
#158 = ORIENTED_EDGE ( 'NONE', *, *, #243, .T. ) ;
#159 = ORIENTED_EDGE ( 'NONE', *, *, #278, .T. ) ;
#160 = APPROVAL ( #192, 'UNSPECIFIED' ) ;
#161 = DIRECTION ( 'NONE',  ( -4.275831445896958607E-31, -1.000000000000000000, -1.224646799147353207E-16 ) ) ;
#162 = AXIS2_PLACEMENT_3D ( 'NONE', #298, #67, #257 ) ;
#163 = PLANE ( 'NONE',  #162 ) ;
#164 = DIRECTION ( 'NONE',  ( 0.0000000000000000000, 1.000000000000000000, 0.0000000000000000000 ) ) ;
#165 = CARTESIAN_POINT ( 'NONE',  ( -2.264809749244711551E-32, 7.943883243005552209E-34, -6.486672931768075750E-18 ) ) ;
#166 = DIRECTION ( 'NONE',  ( -3.491481338843133355E-15, 1.224646799147353207E-16, -1.000000000000000000 ) ) ;
#167 = AXIS2_PLACEMENT_3D ( 'NONE', #18, #133, #110 ) ;
#168 = CARTESIAN_POINT ( 'NONE',  ( 1.396592535537253342E-14, 0.3849999999999995648, 4.000000000000000000 ) ) ;
#169 = APPROVAL_DATE_TIME ( #264, #160 ) ;
#170 = PERSON_AND_ORGANIZATION_ROLE ( 'creator' ) ;
#171 = DIRECTION ( 'NONE',  ( -3.491481338843133355E-15, 1.224646799147353207E-16, -1.000000000000000000 ) ) ;
#172 = AXIS2_PLACEMENT_3D ( 'NONE', #289, #147, #73 ) ;
#173 = ORIENTED_EDGE ( 'NONE', *, *, #243, .F. ) ;
#174 = EDGE_LOOP ( 'NONE', ( #95 ) ) ;
#175 = EDGE_LOOP ( 'NONE', ( #216 ) ) ;
#176 = CIRCLE ( 'NONE', #68, 0.3849999999999995648 ) ;
#177 = CC_DESIGN_APPROVAL ( #37, ( #265 ) ) ;
#178 = COORDINATED_UNIVERSAL_TIME_OFFSET ( 1, 0, .AHEAD. ) ;
#179 = FACE_OUTER_BOUND ( 'NONE', #197, .T. ) ;
#180 = FACE_BOUND ( 'NONE', #294, .T. ) ;
#181 = FACE_OUTER_BOUND ( 'NONE', #287, .T. ) ;
#182 = CLOSED_SHELL ( 'NONE', ( #208, #69, #142, #54, #220, #86, #64, #213 ) ) ;
#183 = CARTESIAN_POINT ( 'NONE',  ( 1.414734804754918526E-14, -4.962221710912908580E-16, 4.051961524227067457 ) ) ;
#184 = UNCERTAINTY_MEASURE_WITH_UNIT (LENGTH_MEASURE( 1.000000000000000082E-05 ), #21, 'distance_accuracy_value', 'NONE');
#185 = ADVANCED_FACE ( 'NONE', ( #207, #297 ), #66, .T. ) ;
#186 = FACE_OUTER_BOUND ( 'NONE', #12, .T. ) ;
#187 = DIRECTION ( 'NONE',  ( -4.275831445896958607E-31, -1.000000000000000000, -1.224646799147353207E-16 ) ) ;
#188 = PERSON_AND_ORGANIZATION ( #271, #280 ) ;
#189 = CIRCLE ( 'NONE', #155, 0.3549999999999994826 ) ;
#190 = AXIS2_PLACEMENT_3D ( 'NONE', #269, #228, #204 ) ;
#191 = CARTESIAN_POINT ( 'NONE',  ( 9.463679131915806782E-32, 0.3272649730810378021, 2.710505431213761085E-17 ) ) ;
#192 = APPROVAL_STATUS ( 'not_yet_approved' ) ;
#193 = AXIS2_PLACEMENT_3D ( 'NONE', #5, #83, #7 ) ;
#194 = CIRCLE ( 'NONE', #58, 0.3853844939755814436 ) ;
#195 = CC_DESIGN_APPROVAL ( #40, ( #256 ) ) ;
#196 = APPROVAL_STATUS ( 'not_yet_approved' ) ;
#197 = EDGE_LOOP ( 'NONE', ( #124 ) ) ;
#198 = FACE_OUTER_BOUND ( 'NONE', #104, .T. ) ;
#199 = LOCAL_TIME ( 11, 39, 56.00000000000000000, #242 ) ;
#200 = APPROVAL_DATE_TIME ( #246, #37 ) ;
#201 = EDGE_LOOP ( 'NONE', ( #219 ) ) ;
#202 = EDGE_LOOP ( 'NONE', ( #101 ) ) ;
#203 = DATE_AND_TIME ( #225, #156 ) ;
#204 = DIRECTION ( 'NONE',  ( 4.275831445896959482E-31, 1.000000000000000000, 1.224646799147353207E-16 ) ) ;
#205 = CARTESIAN_POINT ( 'NONE',  ( 1.396592535537253342E-14, 2.887037581624068916E-33, 4.000000000000000000 ) ) ;
#206 = CARTESIAN_POINT ( 'NONE',  ( 0.0000000000000000000, 0.0000000000000000000, 0.0000000000000000000 ) ) ;
#207 = FACE_OUTER_BOUND ( 'NONE', #29, .T. ) ;
#208 = ADVANCED_FACE ( 'NONE', ( #181 ), #163, .F. ) ;
#209 = CIRCLE ( 'NONE', #167, 0.3549999999999999822 ) ;
#210 = DIRECTION ( 'NONE',  ( -3.751811579975138817E-31, -1.000000000000000000, -1.056041077096271689E-16 ) ) ;
#211 = FACE_OUTER_BOUND ( 'NONE', #175, .T. ) ;
#212 = VERTEX_POINT ( 'NONE', #72 ) ;
#213 = ADVANCED_FACE ( 'NONE', ( #211 ), #41, .F. ) ;
#214 = APPLICATION_PROTOCOL_DEFINITION ( 'international standard', 'config_control_design', 1994, #234 ) ;
#215 = DIRECTION ( 'NONE',  ( -3.491481338843133355E-15, 1.224646799147353207E-16, -1.000000000000000000 ) ) ;
#216 = ORIENTED_EDGE ( 'NONE', *, *, #77, .F. ) ;
#217 = APPROVAL_STATUS ( 'not_yet_approved' ) ;
#218 = COORDINATED_UNIVERSAL_TIME_OFFSET ( 1, 0, .AHEAD. ) ;
#219 = ORIENTED_EDGE ( 'NONE', *, *, #132, .T. ) ;
#220 = ADVANCED_FACE ( 'NONE', ( #180, #300 ), #98, .T. ) ;
#221 = SECURITY_CLASSIFICATION_LEVEL ( 'unclassified' ) ;
#222 = ORIENTED_EDGE ( 'NONE', *, *, #236, .T. ) ;
#223 = LOCAL_TIME ( 11, 39, 56.00000000000000000, #238 ) ;
#224 = AXIS2_PLACEMENT_3D ( 'NONE', #272, #107, #55 ) ;
#225 = CALENDAR_DATE ( 2021, 1, 12 ) ;
#226 = DIRECTION ( 'NONE',  ( 0.0000000000000000000, 1.000000000000000000, 0.0000000000000000000 ) ) ;
#227 = COORDINATED_UNIVERSAL_TIME_OFFSET ( 1, 0, .AHEAD. ) ;
#228 = DIRECTION ( 'NONE',  ( -3.491481338843133355E-15, 1.224646799147353207E-16, -1.000000000000000000 ) ) ;
#229 = DIRECTION ( 'NONE',  ( 4.275831445896958607E-31, 1.000000000000000000, 1.224646799147353207E-16 ) ) ;
#230 = CIRCLE ( 'NONE', #44, 1.200000000000003286 ) ;
#231 = DIRECTION ( 'NONE',  ( -3.491481338843133355E-15, 1.224646799147353207E-16, -1.000000000000000000 ) ) ;
#232 = CARTESIAN_POINT ( 'NONE',  ( 1.326762908760390423E-13, 8.998558695971103225E-33, 38.00000000000000000 ) ) ;
#233 = FACE_BOUND ( 'NONE', #248, .T. ) ;
#234 = APPLICATION_CONTEXT ( 'configuration controlled 3d designs of mechanical parts and assemblies' ) ;
#235 = DIRECTION ( 'NONE',  ( -3.491481338843133355E-15, 1.224646799147353207E-16, -1.000000000000000000 ) ) ;
#236 = EDGE_CURVE ( 'NONE', #141, #141, #189, .T. ) ;
#237 = VERTEX_POINT ( 'NONE', #267 ) ;
#238 = COORDINATED_UNIVERSAL_TIME_OFFSET ( 1, 0, .AHEAD. ) ;
#239 = CONICAL_SURFACE ( 'NONE', #261, 0.3549999999999994826, 0.5235987755982957070 ) ;
#240 = AXIS2_PLACEMENT_3D ( 'NONE', #19, #114, #210 ) ;
#241 = LOCAL_TIME ( 11, 39, 56.00000000000000000, #218 ) ;
#242 = COORDINATED_UNIVERSAL_TIME_OFFSET ( 1, 0, .AHEAD. ) ;
#243 = EDGE_CURVE ( 'NONE', #212, #212, #115, .T. ) ;
#244 = CARTESIAN_POINT ( 'NONE',  ( 2.914442945444142440E-14, 0.3853844939755803889, 8.347296355333845952 ) ) ;
#245 = EDGE_LOOP ( 'NONE', ( #276 ) ) ;
#246 = DATE_AND_TIME ( #149, #241 ) ;
#247 = ADVANCED_FACE ( 'NONE', ( #233, #277 ), #150, .T. ) ;
#248 = EDGE_LOOP ( 'NONE', ( #14 ) ) ;
#249 = ORIENTED_EDGE ( 'NONE', *, *, #1, .T. ) ;
#250 = EDGE_LOOP ( 'NONE', ( #173 ) ) ;
#251 = AXIS2_PLACEMENT_3D ( 'NONE', #301, #279, #135 ) ;
#252 = PERSON_AND_ORGANIZATION ( #271, #280 ) ;
#253 = FACE_OUTER_BOUND ( 'NONE', #36, .T. ) ;
#254 = DIRECTION ( 'NONE',  ( -3.491481338843133355E-15, 1.224646799147353207E-16, -1.000000000000000000 ) ) ;
#255 = CARTESIAN_POINT ( 'NONE',  ( 0.0000000000000000000, 0.0000000000000000000, 0.0000000000000000000 ) ) ;
#256 = SECURITY_CLASSIFICATION ( '', '', #221 ) ;
#257 = DIRECTION ( 'NONE',  ( -4.275831445896958607E-31, -1.000000000000000000, -1.224646799147353207E-16 ) ) ;
#258 = ADVANCED_FACE ( 'NONE', ( #186 ), #282, .F. ) ;
#259 = DIRECTION ( 'NONE',  ( 3.491481338843133355E-15, -1.224646799147353207E-16, 1.000000000000000000 ) ) ;
#260 = PLANE ( 'NONE',  #121 ) ;
#261 = AXIS2_PLACEMENT_3D ( 'NONE', #291, #171, #270 ) ;
#262 = CARTESIAN_POINT ( 'NONE',  ( 1.396592535537253342E-14, -4.898587196589412829E-16, 4.000000000000000000 ) ) ;
#263 = MECHANICAL_CONTEXT ( 'NONE', #234, 'mechanical' ) ;
#264 = DATE_AND_TIME ( #288, #223 ) ;
#265 = PRODUCT_DEFINITION_FORMATION_WITH_SPECIFIED_SOURCE ( 'ANY', '', #32, .NOT_KNOWN. ) ;
#266 =( NAMED_UNIT ( * ) PLANE_ANGLE_UNIT ( ) SI_UNIT ( $, .RADIAN. ) );
#267 = CARTESIAN_POINT ( 'NONE',  ( 3.491481338843134341E-16, 0.3849999999999995648, 0.1000000000000000194 ) ) ;
#268 = ADVANCED_BREP_SHAPE_REPRESENTATION ( '200760', ( #144, #146, #172 ), #302 ) ;
#269 = CARTESIAN_POINT ( 'NONE',  ( 2.793185071074506684E-14, -8.673617379884035472E-16, 8.000000000000000000 ) ) ;
#270 = DIRECTION ( 'NONE',  ( 0.0000000000000000000, 1.000000000000000000, 0.0000000000000000000 ) ) ;
#271 = PERSON ( 'UNSPECIFIED', 'UNSPECIFIED', 'UNSPECIFIED', ('UNSPECIFIED'), ('UNSPECIFIED'), ('UNSPECIFIED') ) ;
#272 = CARTESIAN_POINT ( 'NONE',  ( -4.529619498489423101E-32, 1.588776648601110442E-33, -1.297334586353615150E-17 ) ) ;
#273 = APPROVAL_ROLE ( '' ) ;
#274 = EDGE_LOOP ( 'NONE', ( #9 ) ) ;
#275 = APPLICATION_CONTEXT ( 'configuration controlled 3d designs of mechanical parts and assemblies' ) ;
#276 = ORIENTED_EDGE ( 'NONE', *, *, #87, .T. ) ;
#277 = FACE_OUTER_BOUND ( 'NONE', #201, .T. ) ;
#278 = EDGE_CURVE ( 'NONE', #71, #71, #89, .T. ) ;
#279 = DIRECTION ( 'NONE',  ( 3.491481338843133355E-15, -1.224646799147353207E-16, 1.000000000000000000 ) ) ;
#280 = ORGANIZATION ( 'UNSPECIFIED', 'UNSPECIFIED', '' ) ;
#281 = DIRECTION ( 'NONE',  ( -3.491481338843133355E-15, 1.224646799147353207E-16, -1.000000000000000000 ) ) ;
#282 = PLANE ( 'NONE',  #8 ) ;
#283 = DIRECTION ( 'NONE',  ( 4.275831445896959482E-31, 1.000000000000000000, 1.224646799147353207E-16 ) ) ;
#284 = AXIS2_PLACEMENT_3D ( 'NONE', #136, #166, #164 ) ;
#285 = CIRCLE ( 'NONE', #224, 0.3272649730810378021 ) ;
#286 = CARTESIAN_POINT ( 'NONE',  ( 1.414734804754918526E-14, 0.3549999999999989830, 4.051961524227067457 ) ) ;
#287 = EDGE_LOOP ( 'NONE', ( #159 ) ) ;
#288 = CALENDAR_DATE ( 2021, 1, 12 ) ;
#289 = CARTESIAN_POINT ( 'NONE',  ( 0.0000000000000000000, 0.0000000000000000000, 0.0000000000000000000 ) ) ;
#290 = CARTESIAN_POINT ( 'NONE',  ( 1.316288464743861212E-13, -4.616918432785521081E-15, 37.69999999999999574 ) ) ;
#291 = CARTESIAN_POINT ( 'NONE',  ( 1.414734804754918526E-14, -4.962221710912908580E-16, 4.051961524227067457 ) ) ;
#292 = EDGE_LOOP ( 'NONE', ( #222 ) ) ;
#293 = CC_DESIGN_PERSON_AND_ORGANIZATION_ASSIGNMENT ( #252, #56, ( #265 ) ) ;
#294 = EDGE_LOOP ( 'NONE', ( #81 ) ) ;
#295 = AXIS2_PLACEMENT_3D ( 'NONE', #43, #113, #62 ) ;
#296 = CARTESIAN_POINT ( 'NONE',  ( 0.0000000000000000000, 0.0000000000000000000, 0.0000000000000000000 ) ) ;
#297 = FACE_OUTER_BOUND ( 'NONE', #202, .T. ) ;
#298 = CARTESIAN_POINT ( 'NONE',  ( 1.396592535537253342E-14, 2.887037581624068916E-33, 4.000000000000000000 ) ) ;
#299 = AXIS2_PLACEMENT_3D ( 'NONE', #290, #153, #226 ) ;
#300 = FACE_OUTER_BOUND ( 'NONE', #60, .T. ) ;
#301 = CARTESIAN_POINT ( 'NONE',  ( 5.121512574625840472E-14, -1.796384792761525277E-15, 14.66859501051436432 ) ) ;
#302 =( GEOMETRIC_REPRESENTATION_CONTEXT ( 3 ) GLOBAL_UNCERTAINTY_ASSIGNED_CONTEXT ( ( #184 ) ) GLOBAL_UNIT_ASSIGNED_CONTEXT ( ( #21, #266, #117 ) ) REPRESENTATION_CONTEXT ( 'NONE', 'WORKASPACE' ) );
#303 = VERTEX_POINT ( 'NONE', #24 ) ;
ENDSEC;
END-ISO-10303-21;
