ISO-10303-21;
HEADER;
FILE_DESCRIPTION (( 'STEP AP203' ),
    '1' );
FILE_NAME ('200759.step',
    '2021-12-01T10:39:55',
    ( '' ),
    ( '' ),
    'SwSTEP 2.0',
    'SolidWorks 2019',
    '' );
FILE_SCHEMA (( 'CONFIG_CONTROL_DESIGN' ));
ENDSEC;

DATA;
#1 =( NAMED_UNIT ( * ) PLANE_ANGLE_UNIT ( ) SI_UNIT ( $, .RADIAN. ) );
#2 = APPLICATION_PROTOCOL_DEFINITION ( 'international standard', 'config_control_design', 1994, #148 ) ;
#3 = COORDINATED_UNIVERSAL_TIME_OFFSET ( 1, 0, .AHEAD. ) ;
#4 = DIRECTION ( 'NONE',  ( -3.491481338843133355E-15, 1.224646799147353207E-16, -1.000000000000000000 ) ) ;
#5 = APPROVAL_DATE_TIME ( #121, #145 ) ;
#6 = ORIENTED_EDGE ( 'NONE', *, *, #70, .F. ) ;
#7 = EDGE_LOOP ( 'NONE', ( #73 ) ) ;
#8 = EDGE_LOOP ( 'NONE', ( #51 ) ) ;
#9 = CALENDAR_DATE ( 2021, 1, 12 ) ;
#10 = FACE_BOUND ( 'NONE', #104, .T. ) ;
#11 = PLANE ( 'NONE',  #156 ) ;
#12 = CIRCLE ( 'NONE', #179, 1.500000000000003331 ) ;
#13 = CC_DESIGN_APPROVAL ( #150, ( #222 ) ) ;
#14 = CARTESIAN_POINT ( 'NONE',  ( 1.396592535537253342E-14, 2.924531576190614604E-33, 4.000000000000000000 ) ) ;
#15 = CARTESIAN_POINT ( 'NONE',  ( 5.111611987305582039E-14, -1.792912134197796488E-15, 14.64023860141627686 ) ) ;
#16 = CARTESIAN_POINT ( 'NONE',  ( 1.396592535537253342E-14, 2.924531576190614604E-33, 4.000000000000000000 ) ) ;
#17 = DIRECTION ( 'NONE',  ( 3.491481338843133355E-15, -1.224646799147353207E-16, 1.000000000000000000 ) ) ;
#18 = ADVANCED_FACE ( 'NONE', ( #10, #28 ), #97, .T. ) ;
#19 = DIRECTION ( 'NONE',  ( 1.000000000000000000, 0.0000000000000000000, 0.0000000000000000000 ) ) ;
#20 = VERTEX_POINT ( 'NONE', #303 ) ;
#21 = EDGE_CURVE ( 'NONE', #227, #227, #91, .T. ) ;
#22 = CARTESIAN_POINT ( 'NONE',  ( 5.111611987305582039E-14, 1.499999999999995559, 14.64023860141627686 ) ) ;
#23 = PERSON_AND_ORGANIZATION ( #253, #134 ) ;
#24 = VERTEX_POINT ( 'NONE', #113 ) ;
#25 = PERSON_AND_ORGANIZATION_ROLE ( 'design_supplier' ) ;
#26 = SHAPE_DEFINITION_REPRESENTATION ( #282, #85 ) ;
#27 = EDGE_LOOP ( 'NONE', ( #284 ) ) ;
#28 = FACE_OUTER_BOUND ( 'NONE', #287, .T. ) ;
#29 = EDGE_CURVE ( 'NONE', #157, #157, #12, .T. ) ;
#30 = PERSON_AND_ORGANIZATION_ROLE ( 'classification_officer' ) ;
#31 = AXIS2_PLACEMENT_3D ( 'NONE', #171, #108, #297 ) ;
#32 = CARTESIAN_POINT ( 'NONE',  ( 1.396592535537253342E-14, -4.898587196589412829E-16, 4.000000000000000000 ) ) ;
#33 = PRODUCT ( '200759', '200759', '', ( #278 ) ) ;
#34 = EDGE_LOOP ( 'NONE', ( #56 ) ) ;
#35 = DIRECTION ( 'NONE',  ( 4.275831445896958607E-31, 1.000000000000000000, 1.224646799147353207E-16 ) ) ;
#36 = UNCERTAINTY_MEASURE_WITH_UNIT (LENGTH_MEASURE( 1.000000000000000082E-05 ), #161, 'distance_accuracy_value', 'NONE');
#37 = LOCAL_TIME ( 11, 39, 55.00000000000000000, #146 ) ;
#38 = EDGE_CURVE ( 'NONE', #24, #24, #182, .T. ) ;
#39 = FACE_OUTER_BOUND ( 'NONE', #234, .T. ) ;
#40 = DIRECTION ( 'NONE',  ( -3.491481338843133355E-15, 1.224646799147353207E-16, -1.000000000000000000 ) ) ;
#41 = DIRECTION ( 'NONE',  ( -4.275831445896958607E-31, -1.000000000000000000, -1.224646799147353207E-16 ) ) ;
#42 = AXIS2_PLACEMENT_3D ( 'NONE', #127, #40, #221 ) ;
#43 = DIRECTION ( 'NONE',  ( 3.491481338843133355E-15, -1.224646799147353207E-16, 1.000000000000000000 ) ) ;
#44 = VERTEX_POINT ( 'NONE', #98 ) ;
#45 = DIRECTION ( 'NONE',  ( -3.491481338843133355E-15, 1.224646799147353207E-16, -1.000000000000000000 ) ) ;
#46 = MANIFOLD_SOLID_BREP ( 'Corps-Déplacer/Copier1[1]', #196 ) ;
#47 =( GEOMETRIC_REPRESENTATION_CONTEXT ( 3 ) GLOBAL_UNCERTAINTY_ASSIGNED_CONTEXT ( ( #36 ) ) GLOBAL_UNIT_ASSIGNED_CONTEXT ( ( #161, #1, #160 ) ) REPRESENTATION_CONTEXT ( 'NONE', 'WORKASPACE' ) );
#48 = CARTESIAN_POINT ( 'NONE',  ( 1.326762908760390423E-13, 1.199999999999998845, 38.00000000000000000 ) ) ;
#49 = PRODUCT_RELATED_PRODUCT_CATEGORY ( 'detail', '', ( #33 ) ) ;
#50 = APPROVAL_STATUS ( 'not_yet_approved' ) ;
#51 = ORIENTED_EDGE ( 'NONE', *, *, #210, .T. ) ;
#52 = ORIENTED_EDGE ( 'NONE', *, *, #279, .F. ) ;
#53 = CARTESIAN_POINT ( 'NONE',  ( 1.326762908760390423E-13, -4.653657836759941941E-15, 38.00000000000000000 ) ) ;
#54 = CALENDAR_DATE ( 2021, 1, 12 ) ;
#55 = AXIS2_PLACEMENT_3D ( 'NONE', #173, #270, #92 ) ;
#56 = ORIENTED_EDGE ( 'NONE', *, *, #29, .T. ) ;
#57 = DIRECTION ( 'NONE',  ( -3.703711431513919515E-31, -1.000000000000000000, -1.390002785237827854E-16 ) ) ;
#58 = PLANE ( 'NONE',  #130 ) ;
#59 = FACE_OUTER_BOUND ( 'NONE', #291, .T. ) ;
#60 = AXIS2_PLACEMENT_3D ( 'NONE', #53, #236, #199 ) ;
#61 = DESIGN_CONTEXT ( 'detailed design', #259, 'design' ) ;
#62 = FACE_OUTER_BOUND ( 'NONE', #7, .T. ) ;
#63 = FACE_OUTER_BOUND ( 'NONE', #105, .T. ) ;
#64 = FACE_OUTER_BOUND ( 'NONE', #8, .T. ) ;
#65 = CIRCLE ( 'NONE', #205, 0.3899999999999995137 ) ;
#66 = DIRECTION ( 'NONE',  ( 4.275831445896958607E-31, 1.000000000000000000, 1.224646799147353207E-16 ) ) ;
#67 = PERSON_AND_ORGANIZATION_ROLE ( 'design_owner' ) ;
#68 = CARTESIAN_POINT ( 'NONE',  ( 9.463679131915808972E-32, 0.3322649730810379176, 2.710505431213761085E-17 ) ) ;
#69 = DIRECTION ( 'NONE',  ( 0.0000000000000000000, 1.000000000000000000, 0.0000000000000000000 ) ) ;
#70 = EDGE_CURVE ( 'NONE', #208, #208, #226, .T. ) ;
#71 = CARTESIAN_POINT ( 'NONE',  ( 1.326762908760390423E-13, 8.998558695971103225E-33, 38.00000000000000000 ) ) ;
#72 = APPROVAL_ROLE ( '' ) ;
#73 = ORIENTED_EDGE ( 'NONE', *, *, #38, .F. ) ;
#74 = AXIS2_PLACEMENT_3D ( 'NONE', #117, #45, #133 ) ;
#75 = AXIS2_PLACEMENT_3D ( 'NONE', #265, #191, #79 ) ;
#76 = DATE_TIME_ROLE ( 'classification_date' ) ;
#77 = ORIENTED_EDGE ( 'NONE', *, *, #21, .T. ) ;
#78 = COORDINATED_UNIVERSAL_TIME_OFFSET ( 1, 0, .AHEAD. ) ;
#79 = DIRECTION ( 'NONE',  ( 4.275831445896958607E-31, 1.000000000000000000, 1.224646799147353207E-16 ) ) ;
#80 = DATE_AND_TIME ( #119, #166 ) ;
#81 = EDGE_LOOP ( 'NONE', ( #77 ) ) ;
#82 = AXIS2_PLACEMENT_3D ( 'NONE', #15, #110, #89 ) ;
#83 = EDGE_LOOP ( 'NONE', ( #6 ) ) ;
#84 = CC_DESIGN_APPROVAL ( #145, ( #131 ) ) ;
#85 = ADVANCED_BREP_SHAPE_REPRESENTATION ( '200759', ( #46, #142, #90 ), #47 ) ;
#86 = EDGE_CURVE ( 'NONE', #132, #132, #258, .T. ) ;
#87 = FACE_OUTER_BOUND ( 'NONE', #120, .T. ) ;
#88 = FACE_OUTER_BOUND ( 'NONE', #170, .T. ) ;
#89 = DIRECTION ( 'NONE',  ( 0.0000000000000000000, -1.000000000000000000, 0.0000000000000000000 ) ) ;
#90 = AXIS2_PLACEMENT_3D ( 'NONE', #135, #203, #19 ) ;
#91 = CIRCLE ( 'NONE', #75, 0.3322649730810379176 ) ;
#92 = DIRECTION ( 'NONE',  ( 4.275831445896959482E-31, 1.000000000000000000, 1.224646799147353207E-16 ) ) ;
#93 = ADVANCED_FACE ( 'NONE', ( #217 ), #11, .F. ) ;
#94 = VERTEX_POINT ( 'NONE', #22 ) ;
#95 = DIRECTION ( 'NONE',  ( -3.491481338843133355E-15, 1.224646799147353207E-16, -1.000000000000000000 ) ) ;
#96 = AXIS2_PLACEMENT_3D ( 'NONE', #250, #162, #69 ) ;
#97 = CONICAL_SURFACE ( 'NONE', #277, 0.3899999999999995137, 0.5235987755982914882 ) ;
#98 = CARTESIAN_POINT ( 'NONE',  ( 2.793185071074506684E-14, 0.3599999999999992095, 8.000000000000000000 ) ) ;
#99 = ORIENTED_EDGE ( 'NONE', *, *, #271, .T. ) ;
#100 = CC_DESIGN_PERSON_AND_ORGANIZATION_ASSIGNMENT ( #264, #30, ( #266 ) ) ;
#101 = ORIENTED_EDGE ( 'NONE', *, *, #70, .T. ) ;
#102 = AXIS2_PLACEMENT_3D ( 'NONE', #252, #183, #251 ) ;
#103 = DIRECTION ( 'NONE',  ( 3.491481338843133355E-15, -1.224646799147353207E-16, 1.000000000000000000 ) ) ;
#104 = EDGE_LOOP ( 'NONE', ( #231 ) ) ;
#105 = EDGE_LOOP ( 'NONE', ( #52 ) ) ;
#106 = AXIS2_PLACEMENT_3D ( 'NONE', #71, #95, #66 ) ;
#107 = CLOSED_SHELL ( 'NONE', ( #176, #18, #114, #187 ) ) ;
#108 = DIRECTION ( 'NONE',  ( -3.491481338843133355E-15, 1.224646799147353207E-16, -1.000000000000000000 ) ) ;
#109 = DIRECTION ( 'NONE',  ( -3.491481338843133355E-15, 1.224646799147353207E-16, -1.000000000000000000 ) ) ;
#110 = DIRECTION ( 'NONE',  ( 3.491481338843133355E-15, -1.224646799147353207E-16, 1.000000000000000000 ) ) ;
#111 = FACE_BOUND ( 'NONE', #294, .T. ) ;
#112 = DIRECTION ( 'NONE',  ( -3.491481338843133355E-15, 1.224646799147353207E-16, -1.000000000000000000 ) ) ;
#113 = CARTESIAN_POINT ( 'NONE',  ( 1.396592535537253342E-14, 0.3899999999999995137, 4.000000000000000000 ) ) ;
#114 = ADVANCED_FACE ( 'NONE', ( #87, #88 ), #175, .T. ) ;
#115 = VERTEX_POINT ( 'NONE', #280 ) ;
#116 = VERTEX_POINT ( 'NONE', #206 ) ;
#117 = CARTESIAN_POINT ( 'NONE',  ( 1.396592535537253342E-14, -4.898587196589412829E-16, 4.000000000000000000 ) ) ;
#118 = ORIENTED_EDGE ( 'NONE', *, *, #204, .F. ) ;
#119 = CALENDAR_DATE ( 2021, 1, 12 ) ;
#120 = EDGE_LOOP ( 'NONE', ( #118 ) ) ;
#121 = DATE_AND_TIME ( #192, #137 ) ;
#122 = ADVANCED_FACE ( 'NONE', ( #174, #111 ), #255, .T. ) ;
#123 = ORIENTED_EDGE ( 'NONE', *, *, #86, .F. ) ;
#124 = DIRECTION ( 'NONE',  ( 0.0000000000000000000, 1.000000000000000000, 0.0000000000000000000 ) ) ;
#125 = DIRECTION ( 'NONE',  ( -3.491481338843133355E-15, 1.224646799147353207E-16, -1.000000000000000000 ) ) ;
#126 = APPROVAL_PERSON_ORGANIZATION ( #23, #145, #281 ) ;
#127 = CARTESIAN_POINT ( 'NONE',  ( 1.326762908760390423E-13, -4.653657836759941941E-15, 38.00000000000000000 ) ) ;
#128 = CARTESIAN_POINT ( 'NONE',  ( 1.414734804754918526E-14, -4.962221710912908580E-16, 4.051961524227067457 ) ) ;
#129 = CARTESIAN_POINT ( 'NONE',  ( 3.491481338843132369E-16, -1.224646799147352807E-17, 0.09999999999999996392 ) ) ;
#130 = AXIS2_PLACEMENT_3D ( 'NONE', #14, #295, #41 ) ;
#131 = PRODUCT_DEFINITION ( 'UNKNOWN', '', #222, #61 ) ;
#132 = VERTEX_POINT ( 'NONE', #158 ) ;
#133 = DIRECTION ( 'NONE',  ( 0.0000000000000000000, 1.000000000000000000, 0.0000000000000000000 ) ) ;
#134 = ORGANIZATION ( 'UNSPECIFIED', 'UNSPECIFIED', '' ) ;
#135 = CARTESIAN_POINT ( 'NONE',  ( 0.0000000000000000000, 0.0000000000000000000, 0.0000000000000000000 ) ) ;
#136 = CIRCLE ( 'NONE', #96, 0.3600000000000002087 ) ;
#137 = LOCAL_TIME ( 11, 39, 55.00000000000000000, #283 ) ;
#138 = APPROVAL_DATE_TIME ( #80, #150 ) ;
#139 = ORIENTED_EDGE ( 'NONE', *, *, #86, .T. ) ;
#140 = ADVANCED_FACE ( 'NONE', ( #63, #300 ), #200, .F. ) ;
#141 = ORIENTED_EDGE ( 'NONE', *, *, #204, .T. ) ;
#142 = MANIFOLD_SOLID_BREP ( 'Corps-Déplacer/Copier1[2]', #107 ) ;
#143 = PERSON_AND_ORGANIZATION_ROLE ( 'creator' ) ;
#144 = CONICAL_SURFACE ( 'NONE', #82, 1.499999999999997113, 0.1745329251994260089 ) ;
#145 = APPROVAL ( #209, 'UNSPECIFIED' ) ;
#146 = COORDINATED_UNIVERSAL_TIME_OFFSET ( 1, 0, .AHEAD. ) ;
#147 = ORIENTED_EDGE ( 'NONE', *, *, #29, .F. ) ;
#148 = APPLICATION_CONTEXT ( 'configuration controlled 3d designs of mechanical parts and assemblies' ) ;
#149 = DIRECTION ( 'NONE',  ( -3.491481338843133355E-15, 1.224646799147353207E-16, -1.000000000000000000 ) ) ;
#150 = APPROVAL ( #50, 'UNSPECIFIED' ) ;
#151 = CYLINDRICAL_SURFACE ( 'NONE', #229, 0.3599999999999998757 ) ;
#152 = FACE_OUTER_BOUND ( 'NONE', #193, .T. ) ;
#153 = CARTESIAN_POINT ( 'NONE',  ( 1.414734804754918526E-14, -4.962221710912908580E-16, 4.051961524227067457 ) ) ;
#154 = CC_DESIGN_PERSON_AND_ORGANIZATION_ASSIGNMENT ( #228, #67, ( #33 ) ) ;
#155 = DIRECTION ( 'NONE',  ( -3.491481338843133355E-15, 1.224646799147353207E-16, -1.000000000000000000 ) ) ;
#156 = AXIS2_PLACEMENT_3D ( 'NONE', #16, #43, #202 ) ;
#157 = VERTEX_POINT ( 'NONE', #224 ) ;
#158 = CARTESIAN_POINT ( 'NONE',  ( 1.414734804754918526E-14, 0.3599999999999989875, 4.051961524227067457 ) ) ;
#159 = CC_DESIGN_PERSON_AND_ORGANIZATION_ASSIGNMENT ( #216, #25, ( #222 ) ) ;
#160 =( NAMED_UNIT ( * ) SI_UNIT ( $, .STERADIAN. ) SOLID_ANGLE_UNIT ( ) );
#161 =( LENGTH_UNIT ( ) NAMED_UNIT ( * ) SI_UNIT ( .MILLI., .METRE. ) );
#162 = DIRECTION ( 'NONE',  ( -3.491481338843133355E-15, 1.224646799147353207E-16, -1.000000000000000000 ) ) ;
#163 = DATE_AND_TIME ( #9, #37 ) ;
#164 = ADVANCED_FACE ( 'NONE', ( #269, #64 ), #144, .T. ) ;
#165 = ORIENTED_EDGE ( 'NONE', *, *, #38, .T. ) ;
#166 = LOCAL_TIME ( 11, 39, 55.00000000000000000, #3 ) ;
#167 = DIRECTION ( 'NONE',  ( -3.491481338843133355E-15, 1.224646799147353207E-16, -1.000000000000000000 ) ) ;
#168 = DATE_TIME_ROLE ( 'creation_date' ) ;
#169 = CONICAL_SURFACE ( 'NONE', #42, 1.200000000000003286, 0.7853981633974453924 ) ;
#170 = EDGE_LOOP ( 'NONE', ( #165 ) ) ;
#171 = CARTESIAN_POINT ( 'NONE',  ( 0.0000000000000000000, 0.0000000000000000000, 0.0000000000000000000 ) ) ;
#172 = CC_DESIGN_DATE_AND_TIME_ASSIGNMENT ( #163, #76, ( #266 ) ) ;
#173 = CARTESIAN_POINT ( 'NONE',  ( 0.0000000000000000000, 0.0000000000000000000, 0.0000000000000000000 ) ) ;
#174 = FACE_OUTER_BOUND ( 'NONE', #27, .T. ) ;
#175 = CYLINDRICAL_SURFACE ( 'NONE', #31, 0.3899999999999997358 ) ;
#176 = ADVANCED_FACE ( 'NONE', ( #274 ), #219, .F. ) ;
#177 = CARTESIAN_POINT ( 'NONE',  ( 0.0000000000000000000, 0.0000000000000000000, 0.0000000000000000000 ) ) ;
#178 = AXIS2_PLACEMENT_3D ( 'NONE', #245, #197, #35 ) ;
#179 = AXIS2_PLACEMENT_3D ( 'NONE', #240, #167, #124 ) ;
#180 = APPROVAL_PERSON_ORGANIZATION ( #262, #232, #260 ) ;
#181 = PLANE ( 'NONE',  #106 ) ;
#182 = CIRCLE ( 'NONE', #218, 0.3900000000000000133 ) ;
#183 = DIRECTION ( 'NONE',  ( -3.491481338843133355E-15, 1.224646799147353207E-16, -1.000000000000000000 ) ) ;
#184 = AXIS2_PLACEMENT_3D ( 'NONE', #296, #17, #198 ) ;
#185 = LOCAL_TIME ( 11, 39, 55.00000000000000000, #235 ) ;
#186 = APPLICATION_PROTOCOL_DEFINITION ( 'international standard', 'config_control_design', 1994, #259 ) ;
#187 = ADVANCED_FACE ( 'NONE', ( #62 ), #58, .T. ) ;
#188 = PERSON_AND_ORGANIZATION_ROLE ( 'creator' ) ;
#189 = ORIENTED_EDGE ( 'NONE', *, *, #285, .T. ) ;
#190 = EDGE_LOOP ( 'NONE', ( #123 ) ) ;
#191 = DIRECTION ( 'NONE',  ( -3.491481338843133355E-15, 1.224646799147353207E-16, -1.000000000000000000 ) ) ;
#192 = CALENDAR_DATE ( 2021, 1, 12 ) ;
#193 = EDGE_LOOP ( 'NONE', ( #257 ) ) ;
#194 = PERSON_AND_ORGANIZATION ( #253, #134 ) ;
#195 = CARTESIAN_POINT ( 'NONE',  ( 3.491481338843132369E-16, -1.224646799147352807E-17, 0.09999999999999996392 ) ) ;
#196 = CLOSED_SHELL ( 'NONE', ( #93, #122, #256, #140, #164, #225, #267, #292 ) ) ;
#197 = DIRECTION ( 'NONE',  ( -3.491481338843133355E-15, 1.224646799147353207E-16, -1.000000000000000000 ) ) ;
#198 = DIRECTION ( 'NONE',  ( -4.275831445896958607E-31, -1.000000000000000000, -1.224646799147353207E-16 ) ) ;
#199 = DIRECTION ( 'NONE',  ( 0.0000000000000000000, 1.000000000000000000, 0.0000000000000000000 ) ) ;
#200 = TOROIDAL_SURFACE ( 'NONE', #178, 2.360000000000000320, 2.000000000000000000 ) ;
#201 = CARTESIAN_POINT ( 'NONE',  ( 5.111611987305582039E-14, -1.792912134197796488E-15, 14.64023860141627686 ) ) ;
#202 = DIRECTION ( 'NONE',  ( -4.275831445896958607E-31, -1.000000000000000000, -1.224646799147353207E-16 ) ) ;
#203 = DIRECTION ( 'NONE',  ( 0.0000000000000000000, 0.0000000000000000000, 1.000000000000000000 ) ) ;
#204 = EDGE_CURVE ( 'NONE', #116, #116, #65, .T. ) ;
#205 = AXIS2_PLACEMENT_3D ( 'NONE', #129, #109, #273 ) ;
#206 = CARTESIAN_POINT ( 'NONE',  ( 3.491481338843133848E-16, 0.3899999999999995137, 0.1000000000000000194 ) ) ;
#207 = CC_DESIGN_SECURITY_CLASSIFICATION ( #266, ( #222 ) ) ;
#208 = VERTEX_POINT ( 'NONE', #48 ) ;
#209 = APPROVAL_STATUS ( 'not_yet_approved' ) ;
#210 = EDGE_CURVE ( 'NONE', #94, #94, #302, .T. ) ;
#211 = EDGE_LOOP ( 'NONE', ( #101 ) ) ;
#212 = CC_DESIGN_PERSON_AND_ORGANIZATION_ASSIGNMENT ( #233, #188, ( #222 ) ) ;
#213 = APPROVAL_STATUS ( 'not_yet_approved' ) ;
#214 = ORIENTED_EDGE ( 'NONE', *, *, #279, .T. ) ;
#215 = EDGE_LOOP ( 'NONE', ( #189 ) ) ;
#216 = PERSON_AND_ORGANIZATION ( #253, #134 ) ;
#217 = FACE_OUTER_BOUND ( 'NONE', #268, .T. ) ;
#218 = AXIS2_PLACEMENT_3D ( 'NONE', #32, #4, #263 ) ;
#219 = PLANE ( 'NONE',  #184 ) ;
#220 = DIRECTION ( 'NONE',  ( 0.0000000000000000000, 1.000000000000000000, 0.0000000000000000000 ) ) ;
#221 = DIRECTION ( 'NONE',  ( 0.0000000000000000000, 1.000000000000000000, 0.0000000000000000000 ) ) ;
#222 = PRODUCT_DEFINITION_FORMATION_WITH_SPECIFIED_SOURCE ( 'ANY', '', #33, .NOT_KNOWN. ) ;
#223 = DIRECTION ( 'NONE',  ( 0.0000000000000000000, 1.000000000000000000, 0.0000000000000000000 ) ) ;
#224 = CARTESIAN_POINT ( 'NONE',  ( 1.316288464743861212E-13, 1.499999999999998668, 37.69999999999999574 ) ) ;
#225 = ADVANCED_FACE ( 'NONE', ( #152, #248 ), #241, .T. ) ;
#226 = CIRCLE ( 'NONE', #60, 1.200000000000003286 ) ;
#227 = VERTEX_POINT ( 'NONE', #68 ) ;
#228 = PERSON_AND_ORGANIZATION ( #253, #134 ) ;
#229 = AXIS2_PLACEMENT_3D ( 'NONE', #177, #155, #243 ) ;
#230 = APPROVAL_DATE_TIME ( #288, #232 ) ;
#231 = ORIENTED_EDGE ( 'NONE', *, *, #21, .F. ) ;
#232 = APPROVAL ( #213, 'UNSPECIFIED' ) ;
#233 = PERSON_AND_ORGANIZATION ( #253, #134 ) ;
#234 = EDGE_LOOP ( 'NONE', ( #147 ) ) ;
#235 = COORDINATED_UNIVERSAL_TIME_OFFSET ( 1, 0, .AHEAD. ) ;
#236 = DIRECTION ( 'NONE',  ( -3.491481338843133355E-15, 1.224646799147353207E-16, -1.000000000000000000 ) ) ;
#237 = AXIS2_PLACEMENT_3D ( 'NONE', #153, #112, #220 ) ;
#238 = CALENDAR_DATE ( 2021, 1, 12 ) ;
#239 = CC_DESIGN_DATE_AND_TIME_ASSIGNMENT ( #293, #168, ( #131 ) ) ;
#240 = CARTESIAN_POINT ( 'NONE',  ( 1.316288464743861212E-13, -4.616918432785521081E-15, 37.69999999999999574 ) ) ;
#241 = CYLINDRICAL_SURFACE ( 'NONE', #55, 1.500000000000000222 ) ;
#242 = APPROVAL_PERSON_ORGANIZATION ( #194, #150, #72 ) ;
#243 = DIRECTION ( 'NONE',  ( 4.275831445896958607E-31, 1.000000000000000000, 1.224646799147353207E-16 ) ) ;
#244 = FACE_OUTER_BOUND ( 'NONE', #190, .T. ) ;
#245 = CARTESIAN_POINT ( 'NONE',  ( 2.793185071074506684E-14, -8.673617379884035472E-16, 8.000000000000000000 ) ) ;
#246 = AXIS2_PLACEMENT_3D ( 'NONE', #128, #125, #299 ) ;
#247 = LOCAL_TIME ( 11, 39, 55.00000000000000000, #78 ) ;
#248 = FACE_OUTER_BOUND ( 'NONE', #34, .T. ) ;
#249 = CC_DESIGN_PERSON_AND_ORGANIZATION_ASSIGNMENT ( #290, #143, ( #131 ) ) ;
#250 = CARTESIAN_POINT ( 'NONE',  ( 2.793185071074506684E-14, -9.797174393178825657E-16, 8.000000000000000000 ) ) ;
#251 = DIRECTION ( 'NONE',  ( 0.0000000000000000000, 1.000000000000000000, 0.0000000000000000000 ) ) ;
#252 = CARTESIAN_POINT ( 'NONE',  ( 2.914442945444142440E-14, -1.022248976309396081E-15, 8.347296355333845952 ) ) ;
#253 = PERSON ( 'UNSPECIFIED', 'UNSPECIFIED', 'UNSPECIFIED', ('UNSPECIFIED'), ('UNSPECIFIED'), ('UNSPECIFIED') ) ;
#254 = SECURITY_CLASSIFICATION_LEVEL ( 'unclassified' ) ;
#255 = CONICAL_SURFACE ( 'NONE', #237, 0.3599999999999994871, 0.5235987755982949299 ) ;
#256 = ADVANCED_FACE ( 'NONE', ( #244, #59 ), #151, .T. ) ;
#257 = ORIENTED_EDGE ( 'NONE', *, *, #210, .F. ) ;
#258 = CIRCLE ( 'NONE', #246, 0.3599999999999994871 ) ;
#259 = APPLICATION_CONTEXT ( 'configuration controlled 3d designs of mechanical parts and assemblies' ) ;
#260 = APPROVAL_ROLE ( '' ) ;
#261 = EDGE_LOOP ( 'NONE', ( #289 ) ) ;
#262 = PERSON_AND_ORGANIZATION ( #253, #134 ) ;
#263 = DIRECTION ( 'NONE',  ( 0.0000000000000000000, 1.000000000000000000, 0.0000000000000000000 ) ) ;
#264 = PERSON_AND_ORGANIZATION ( #253, #134 ) ;
#265 = CARTESIAN_POINT ( 'NONE',  ( -4.743411070784275717E-32, 1.663764637734205238E-33, -1.358566926310984369E-17 ) ) ;
#266 = SECURITY_CLASSIFICATION ( '', '', #254 ) ;
#267 = ADVANCED_FACE ( 'NONE', ( #39, #275 ), #169, .T. ) ;
#268 = EDGE_LOOP ( 'NONE', ( #99 ) ) ;
#269 = FACE_BOUND ( 'NONE', #261, .T. ) ;
#270 = DIRECTION ( 'NONE',  ( -3.491481338843133355E-15, 1.224646799147353207E-16, -1.000000000000000000 ) ) ;
#271 = EDGE_CURVE ( 'NONE', #20, #20, #276, .T. ) ;
#272 = AXIS2_PLACEMENT_3D ( 'NONE', #201, #149, #223 ) ;
#273 = DIRECTION ( 'NONE',  ( 3.703711431513919515E-31, 1.000000000000000000, 1.390002785237827854E-16 ) ) ;
#274 = FACE_OUTER_BOUND ( 'NONE', #81, .T. ) ;
#275 = FACE_BOUND ( 'NONE', #211, .T. ) ;
#276 = CIRCLE ( 'NONE', #74, 0.3900000000000000133 ) ;
#277 = AXIS2_PLACEMENT_3D ( 'NONE', #195, #103, #57 ) ;
#278 = MECHANICAL_CONTEXT ( 'NONE', #148, 'mechanical' ) ;
#279 = EDGE_CURVE ( 'NONE', #44, #44, #136, .T. ) ;
#280 = CARTESIAN_POINT ( 'NONE',  ( 2.914442945444142440E-14, 0.3903844939755803933, 8.347296355333845952 ) ) ;
#281 = APPROVAL_ROLE ( '' ) ;
#282 = PRODUCT_DEFINITION_SHAPE ( 'NONE', 'NONE',  #131 ) ;
#283 = COORDINATED_UNIVERSAL_TIME_OFFSET ( 1, 0, .AHEAD. ) ;
#284 = ORIENTED_EDGE ( 'NONE', *, *, #271, .F. ) ;
#285 = EDGE_CURVE ( 'NONE', #115, #115, #286, .T. ) ;
#286 = CIRCLE ( 'NONE', #102, 0.3903844939755814480 ) ;
#287 = EDGE_LOOP ( 'NONE', ( #141 ) ) ;
#288 = DATE_AND_TIME ( #238, #247 ) ;
#289 = ORIENTED_EDGE ( 'NONE', *, *, #285, .F. ) ;
#290 = PERSON_AND_ORGANIZATION ( #253, #134 ) ;
#291 = EDGE_LOOP ( 'NONE', ( #214 ) ) ;
#292 = ADVANCED_FACE ( 'NONE', ( #301 ), #181, .F. ) ;
#293 = DATE_AND_TIME ( #54, #185 ) ;
#294 = EDGE_LOOP ( 'NONE', ( #139 ) ) ;
#295 = DIRECTION ( 'NONE',  ( 3.491481338843133355E-15, -1.224646799147353207E-16, 1.000000000000000000 ) ) ;
#296 = CARTESIAN_POINT ( 'NONE',  ( -2.371705535392137859E-32, 8.318823188671026190E-34, -6.792834631554921847E-18 ) ) ;
#297 = DIRECTION ( 'NONE',  ( 4.275831445896958607E-31, 1.000000000000000000, 1.224646799147353207E-16 ) ) ;
#298 = CC_DESIGN_APPROVAL ( #232, ( #266 ) ) ;
#299 = DIRECTION ( 'NONE',  ( 0.0000000000000000000, 1.000000000000000000, 0.0000000000000000000 ) ) ;
#300 = FACE_OUTER_BOUND ( 'NONE', #215, .T. ) ;
#301 = FACE_OUTER_BOUND ( 'NONE', #83, .T. ) ;
#302 = CIRCLE ( 'NONE', #272, 1.499999999999997113 ) ;
#303 = CARTESIAN_POINT ( 'NONE',  ( 1.396592535537253342E-14, 0.3899999999999995137, 4.000000000000000000 ) ) ;
ENDSEC;
END-ISO-10303-21;
