ISO-10303-21;
HEADER;
FILE_DESCRIPTION (( 'STEP AP203' ),
    '1' );
FILE_NAME ('200758.step',
    '2021-12-01T07:27:23',
    ( '' ),
    ( '' ),
    'SwSTEP 2.0',
    'SolidWorks 2019',
    '' );
FILE_SCHEMA (( 'CONFIG_CONTROL_DESIGN' ));
ENDSEC;

DATA;
#1 = ORIENTED_EDGE ( 'NONE', *, *, #10, .T. ) ;
#2 = AXIS2_PLACEMENT_3D ( 'NONE', #113, #15, #131 ) ;
#3 = SECURITY_CLASSIFICATION ( '', '', #250 ) ;
#4 = EDGE_LOOP ( 'NONE', ( #20 ) ) ;
#5 = CLOSED_SHELL ( 'NONE', ( #206, #112, #25, #61 ) ) ;
#6 = DIRECTION ( 'NONE',  ( 0.0000000000000000000, 1.000000000000000000, 0.0000000000000000000 ) ) ;
#7 = COORDINATED_UNIVERSAL_TIME_OFFSET ( 1, 0, .AHEAD. ) ;
#8 = DIRECTION ( 'NONE',  ( 1.000000000000000000, 0.0000000000000000000, 0.0000000000000000000 ) ) ;
#9 = EDGE_LOOP ( 'NONE', ( #283 ) ) ;
#10 = EDGE_CURVE ( 'NONE', #13, #13, #29, .T. ) ;
#11 = CIRCLE ( 'NONE', #2, 0.3599999999999990985 ) ;
#12 = DIRECTION ( 'NONE',  ( -3.491481338843133355E-15, 1.224646799147353207E-16, -1.000000000000000000 ) ) ;
#13 = VERTEX_POINT ( 'NONE', #88 ) ;
#14 = DIRECTION ( 'NONE',  ( 0.0000000000000000000, 0.0000000000000000000, 1.000000000000000000 ) ) ;
#15 = DIRECTION ( 'NONE',  ( -3.491481338843133355E-15, 1.224646799147353207E-16, -1.000000000000000000 ) ) ;
#16 = ADVANCED_FACE ( 'NONE', ( #223, #28 ), #167, .T. ) ;
#17 = DIRECTION ( 'NONE',  ( 3.491481338843133355E-15, -1.224646799147353207E-16, 1.000000000000000000 ) ) ;
#18 = FACE_OUTER_BOUND ( 'NONE', #242, .T. ) ;
#19 = CALENDAR_DATE ( 2021, 1, 12 ) ;
#20 = ORIENTED_EDGE ( 'NONE', *, *, #282, .F. ) ;
#21 = LOCAL_TIME ( 8, 27, 23.00000000000000000, #36 ) ;
#22 = UNCERTAINTY_MEASURE_WITH_UNIT (LENGTH_MEASURE( 1.000000000000000082E-05 ), #276, 'distance_accuracy_value', 'NONE');
#23 = EDGE_LOOP ( 'NONE', ( #205 ) ) ;
#24 = AXIS2_PLACEMENT_3D ( 'NONE', #248, #136, #31 ) ;
#25 = ADVANCED_FACE ( 'NONE', ( #207, #247 ), #74, .T. ) ;
#26 = FACE_OUTER_BOUND ( 'NONE', #265, .T. ) ;
#27 = EDGE_CURVE ( 'NONE', #58, #58, #93, .T. ) ;
#28 = FACE_BOUND ( 'NONE', #102, .T. ) ;
#29 = CIRCLE ( 'NONE', #68, 1.200000000000003286 ) ;
#30 = CARTESIAN_POINT ( 'NONE',  ( 0.0000000000000000000, 0.0000000000000000000, 0.0000000000000000000 ) ) ;
#31 = DIRECTION ( 'NONE',  ( 0.0000000000000000000, -1.000000000000000000, 0.0000000000000000000 ) ) ;
#32 = ADVANCED_FACE ( 'NONE', ( #26 ), #191, .F. ) ;
#33 = DIRECTION ( 'NONE',  ( -3.491481338843133355E-15, 1.224646799147353207E-16, -1.000000000000000000 ) ) ;
#34 = AXIS2_PLACEMENT_3D ( 'NONE', #84, #86, #199 ) ;
#35 = CARTESIAN_POINT ( 'NONE',  ( 1.396592535537253342E-14, -4.898587196589412829E-16, 4.000000000000000000 ) ) ;
#36 = COORDINATED_UNIVERSAL_TIME_OFFSET ( 1, 0, .AHEAD. ) ;
#37 = DIRECTION ( 'NONE',  ( 4.275831445896959482E-31, 1.000000000000000000, 1.224646799147353207E-16 ) ) ;
#38 = VERTEX_POINT ( 'NONE', #151 ) ;
#39 = ADVANCED_FACE ( 'NONE', ( #119, #56 ), #188, .T. ) ;
#40 = VERTEX_POINT ( 'NONE', #147 ) ;
#41 = CIRCLE ( 'NONE', #117, 0.3600000000000002087 ) ;
#42 = CARTESIAN_POINT ( 'NONE',  ( -1.292434076893097556E-31, 4.533248503343089886E-33, -3.701678317780533989E-17 ) ) ;
#43 = PRODUCT_RELATED_PRODUCT_CATEGORY ( 'detail', '', ( #235 ) ) ;
#44 = CIRCLE ( 'NONE', #82, 1.499999999999997113 ) ;
#45 = MANIFOLD_SOLID_BREP ( 'Corps-Déplacer/Copier1[2]', #5 ) ;
#46 = ORIENTED_EDGE ( 'NONE', *, *, #134, .F. ) ;
#47 = MANIFOLD_SOLID_BREP ( 'Corps-Déplacer/Copier1[1]', #99 ) ;
#48 = AXIS2_PLACEMENT_3D ( 'NONE', #230, #111, #37 ) ;
#49 = EDGE_LOOP ( 'NONE', ( #159 ) ) ;
#50 = EDGE_LOOP ( 'NONE', ( #204 ) ) ;
#51 = PERSON_AND_ORGANIZATION_ROLE ( 'creator' ) ;
#52 = FACE_OUTER_BOUND ( 'NONE', #71, .T. ) ;
#53 = CONICAL_SURFACE ( 'NONE', #181, 0.3599999999999990985, 0.5235987755982917102 ) ;
#54 = PERSON_AND_ORGANIZATION_ROLE ( 'design_supplier' ) ;
#55 = ORIENTED_EDGE ( 'NONE', *, *, #81, .F. ) ;
#56 = FACE_OUTER_BOUND ( 'NONE', #158, .T. ) ;
#57 = APPROVAL ( #79, 'UNSPECIFIED' ) ;
#58 = VERTEX_POINT ( 'NONE', #178 ) ;
#59 = APPROVAL_DATE_TIME ( #96, #57 ) ;
#60 = DIRECTION ( 'NONE',  ( 0.0000000000000000000, 1.000000000000000000, 0.0000000000000000000 ) ) ;
#61 = ADVANCED_FACE ( 'NONE', ( #189 ), #73, .T. ) ;
#62 = FACE_OUTER_BOUND ( 'NONE', #120, .T. ) ;
#63 = DIRECTION ( 'NONE',  ( -3.491481338843133355E-15, 1.224646799147353207E-16, -1.000000000000000000 ) ) ;
#64 = DIRECTION ( 'NONE',  ( 4.275831445896958607E-31, 1.000000000000000000, 1.224646799147353207E-16 ) ) ;
#65 = TOROIDAL_SURFACE ( 'NONE', #123, 2.360000000000000320, 2.000000000000000000 ) ;
#66 = APPROVAL_PERSON_ORGANIZATION ( #272, #57, #174 ) ;
#67 = APPROVAL_DATE_TIME ( #233, #145 ) ;
#68 = AXIS2_PLACEMENT_3D ( 'NONE', #92, #12, #137 ) ;
#69 = CC_DESIGN_DATE_AND_TIME_ASSIGNMENT ( #278, #87, ( #3 ) ) ;
#70 = ORIENTED_EDGE ( 'NONE', *, *, #157, .T. ) ;
#71 = EDGE_LOOP ( 'NONE', ( #90 ) ) ;
#72 = CC_DESIGN_PERSON_AND_ORGANIZATION_ASSIGNMENT ( #227, #110, ( #3 ) ) ;
#73 = PLANE ( 'NONE',  #122 ) ;
#74 = CYLINDRICAL_SURFACE ( 'NONE', #262, 0.3599999999999993761 ) ;
#75 = APPROVAL_DATE_TIME ( #83, #170 ) ;
#76 = DIRECTION ( 'NONE',  ( -3.491481338843133355E-15, 1.224646799147353207E-16, -1.000000000000000000 ) ) ;
#77 = EDGE_LOOP ( 'NONE', ( #218 ) ) ;
#78 = DIRECTION ( 'NONE',  ( -3.491481338843133355E-15, 1.224646799147353207E-16, -1.000000000000000000 ) ) ;
#79 = APPROVAL_STATUS ( 'not_yet_approved' ) ;
#80 = VERTEX_POINT ( 'NONE', #256 ) ;
#81 = EDGE_CURVE ( 'NONE', #40, #40, #148, .T. ) ;
#82 = AXIS2_PLACEMENT_3D ( 'NONE', #196, #279, #237 ) ;
#83 = DATE_AND_TIME ( #274, #168 ) ;
#84 = CARTESIAN_POINT ( 'NONE',  ( 1.326762908760390423E-13, 8.998558695971103225E-33, 38.00000000000000000 ) ) ;
#85 = CC_DESIGN_DATE_AND_TIME_ASSIGNMENT ( #211, #106, ( #91 ) ) ;
#86 = DIRECTION ( 'NONE',  ( -3.491481338843133355E-15, 1.224646799147353207E-16, -1.000000000000000000 ) ) ;
#87 = DATE_TIME_ROLE ( 'classification_date' ) ;
#88 = CARTESIAN_POINT ( 'NONE',  ( 1.326762908760390423E-13, 1.199999999999998845, 38.00000000000000000 ) ) ;
#89 = ADVANCED_FACE ( 'NONE', ( #173, #251 ), #185, .T. ) ;
#90 = ORIENTED_EDGE ( 'NONE', *, *, #162, .T. ) ;
#91 = PRODUCT_DEFINITION ( 'UNKNOWN', '', #214, #164 ) ;
#92 = CARTESIAN_POINT ( 'NONE',  ( 1.326762908760390423E-13, -4.653657836759941941E-15, 38.00000000000000000 ) ) ;
#93 = CIRCLE ( 'NONE', #140, 1.500000000000003331 ) ;
#94 = CC_DESIGN_APPROVAL ( #145, ( #3 ) ) ;
#95 = EDGE_LOOP ( 'NONE', ( #55 ) ) ;
#96 = DATE_AND_TIME ( #255, #226 ) ;
#97 = DIRECTION ( 'NONE',  ( -4.275831445896958607E-31, -1.000000000000000000, -1.224646799147353207E-16 ) ) ;
#98 = EDGE_LOOP ( 'NONE', ( #116 ) ) ;
#99 = CLOSED_SHELL ( 'NONE', ( #32, #39, #138, #89, #132, #16, #266 ) ) ;
#100 = AXIS2_PLACEMENT_3D ( 'NONE', #269, #14, #8 ) ;
#101 = PERSON_AND_ORGANIZATION ( #130, #149 ) ;
#102 = EDGE_LOOP ( 'NONE', ( #1 ) ) ;
#103 = APPLICATION_CONTEXT ( 'configuration controlled 3d designs of mechanical parts and assemblies' ) ;
#104 = APPLICATION_PROTOCOL_DEFINITION ( 'international standard', 'config_control_design', 1994, #103 ) ;
#105 = FACE_OUTER_BOUND ( 'NONE', #203, .T. ) ;
#106 = DATE_TIME_ROLE ( 'creation_date' ) ;
#107 = PLANE ( 'NONE',  #160 ) ;
#108 = AXIS2_PLACEMENT_3D ( 'NONE', #229, #78, #6 ) ;
#109 = CC_DESIGN_APPROVAL ( #57, ( #91 ) ) ;
#110 = PERSON_AND_ORGANIZATION_ROLE ( 'classification_officer' ) ;
#111 = DIRECTION ( 'NONE',  ( -3.491481338843133355E-15, 1.224646799147353207E-16, -1.000000000000000000 ) ) ;
#112 = ADVANCED_FACE ( 'NONE', ( #222, #52 ), #53, .T. ) ;
#113 = CARTESIAN_POINT ( 'NONE',  ( 3.491481338843132862E-16, -1.224646799147352961E-17, 0.09999999999999997780 ) ) ;
#114 = EDGE_LOOP ( 'NONE', ( #46 ) ) ;
#115 = ORIENTED_EDGE ( 'NONE', *, *, #81, .T. ) ;
#116 = ORIENTED_EDGE ( 'NONE', *, *, #241, .F. ) ;
#117 = AXIS2_PLACEMENT_3D ( 'NONE', #197, #210, #194 ) ;
#118 = PERSON_AND_ORGANIZATION ( #130, #149 ) ;
#119 = FACE_OUTER_BOUND ( 'NONE', #95, .T. ) ;
#120 = EDGE_LOOP ( 'NONE', ( #169 ) ) ;
#121 = DIRECTION ( 'NONE',  ( -4.275831445896958607E-31, -1.000000000000000000, -1.224646799147353207E-16 ) ) ;
#122 = AXIS2_PLACEMENT_3D ( 'NONE', #187, #166, #121 ) ;
#123 = AXIS2_PLACEMENT_3D ( 'NONE', #234, #212, #64 ) ;
#124 = CC_DESIGN_APPROVAL ( #170, ( #214 ) ) ;
#125 = VERTEX_POINT ( 'NONE', #275 ) ;
#126 = CALENDAR_DATE ( 2021, 1, 12 ) ;
#127 = FACE_OUTER_BOUND ( 'NONE', #98, .T. ) ;
#128 = COORDINATED_UNIVERSAL_TIME_OFFSET ( 1, 0, .AHEAD. ) ;
#129 = VERTEX_POINT ( 'NONE', #213 ) ;
#130 = PERSON ( 'UNSPECIFIED', 'UNSPECIFIED', 'UNSPECIFIED', ('UNSPECIFIED'), ('UNSPECIFIED'), ('UNSPECIFIED') ) ;
#131 = DIRECTION ( 'NONE',  ( 4.012354050806751286E-31, 1.000000000000000000, 1.129377263005736579E-16 ) ) ;
#132 = ADVANCED_FACE ( 'NONE', ( #232, #258 ), #216, .T. ) ;
#133 = CARTESIAN_POINT ( 'NONE',  ( -6.462170384465487781E-32, 2.266624251671544943E-33, -1.850839158890266994E-17 ) ) ;
#134 = EDGE_CURVE ( 'NONE', #125, #125, #249, .T. ) ;
#135 = CIRCLE ( 'NONE', #176, 0.3903844939755814480 ) ;
#136 = DIRECTION ( 'NONE',  ( 3.491481338843133355E-15, -1.224646799147353207E-16, 1.000000000000000000 ) ) ;
#137 = DIRECTION ( 'NONE',  ( 0.0000000000000000000, 1.000000000000000000, 0.0000000000000000000 ) ) ;
#138 = ADVANCED_FACE ( 'NONE', ( #127, #18 ), #65, .F. ) ;
#139 = CARTESIAN_POINT ( 'NONE',  ( 3.491481338843132862E-16, -1.224646799147352961E-17, 0.09999999999999997780 ) ) ;
#140 = AXIS2_PLACEMENT_3D ( 'NONE', #253, #33, #143 ) ;
#141 = APPROVAL_PERSON_ORGANIZATION ( #261, #145, #240 ) ;
#142 = PERSON_AND_ORGANIZATION ( #130, #149 ) ;
#143 = DIRECTION ( 'NONE',  ( 0.0000000000000000000, 1.000000000000000000, 0.0000000000000000000 ) ) ;
#144 = CARTESIAN_POINT ( 'NONE',  ( 1.396592535537253342E-14, 2.699567608791333978E-33, 4.000000000000000000 ) ) ;
#145 = APPROVAL ( #200, 'UNSPECIFIED' ) ;
#146 = PERSON_AND_ORGANIZATION_ROLE ( 'design_owner' ) ;
#147 = CARTESIAN_POINT ( 'NONE',  ( 1.396592535537253342E-14, 0.3599999999999991540, 4.000000000000000000 ) ) ;
#148 = CIRCLE ( 'NONE', #183, 0.3599999999999996536 ) ;
#149 = ORGANIZATION ( 'UNSPECIFIED', 'UNSPECIFIED', '' ) ;
#150 = COORDINATED_UNIVERSAL_TIME_OFFSET ( 1, 0, .AHEAD. ) ;
#151 = CARTESIAN_POINT ( 'NONE',  ( 2.793185071074506684E-14, 0.3599999999999992095, 8.000000000000000000 ) ) ;
#152 = CARTESIAN_POINT ( 'NONE',  ( 3.491481338843134341E-16, 0.3599999999999990985, 0.1000000000000000194 ) ) ;
#153 = DIRECTION ( 'NONE',  ( -3.491481338843133355E-15, 1.224646799147353207E-16, -1.000000000000000000 ) ) ;
#154 = CALENDAR_DATE ( 2021, 1, 12 ) ;
#155 = DIRECTION ( 'NONE',  ( -3.491481338843133355E-15, 1.224646799147353207E-16, -1.000000000000000000 ) ) ;
#156 = EDGE_LOOP ( 'NONE', ( #225 ) ) ;
#157 = EDGE_CURVE ( 'NONE', #175, #175, #135, .T. ) ;
#158 = EDGE_LOOP ( 'NONE', ( #270 ) ) ;
#159 = ORIENTED_EDGE ( 'NONE', *, *, #282, .T. ) ;
#160 = AXIS2_PLACEMENT_3D ( 'NONE', #133, #259, #192 ) ;
#161 = DIRECTION ( 'NONE',  ( -3.491481338843133355E-15, 1.224646799147353207E-16, -1.000000000000000000 ) ) ;
#162 = EDGE_CURVE ( 'NONE', #257, #257, #11, .T. ) ;
#163 = DIRECTION ( 'NONE',  ( 0.0000000000000000000, 1.000000000000000000, 0.0000000000000000000 ) ) ;
#164 = DESIGN_CONTEXT ( 'detailed design', #103, 'design' ) ;
#165 = APPROVAL_STATUS ( 'not_yet_approved' ) ;
#166 = DIRECTION ( 'NONE',  ( 3.491481338843133355E-15, -1.224646799147353207E-16, 1.000000000000000000 ) ) ;
#167 = CONICAL_SURFACE ( 'NONE', #108, 1.200000000000003286, 0.7853981633974453924 ) ;
#168 = LOCAL_TIME ( 8, 27, 23.00000000000000000, #7 ) ;
#169 = ORIENTED_EDGE ( 'NONE', *, *, #10, .F. ) ;
#170 = APPROVAL ( #165, 'UNSPECIFIED' ) ;
#171 = APPLICATION_CONTEXT ( 'configuration controlled 3d designs of mechanical parts and assemblies' ) ;
#172 =( NAMED_UNIT ( * ) SI_UNIT ( $, .STERADIAN. ) SOLID_ANGLE_UNIT ( ) );
#173 = FACE_BOUND ( 'NONE', #156, .T. ) ;
#174 = APPROVAL_ROLE ( '' ) ;
#175 = VERTEX_POINT ( 'NONE', #273 ) ;
#176 = AXIS2_PLACEMENT_3D ( 'NONE', #182, #155, #60 ) ;
#177 = PERSON_AND_ORGANIZATION ( #130, #149 ) ;
#178 = CARTESIAN_POINT ( 'NONE',  ( 1.316288464743861212E-13, 1.499999999999998668, 37.69999999999999574 ) ) ;
#179 = CC_DESIGN_PERSON_AND_ORGANIZATION_ASSIGNMENT ( #177, #51, ( #214 ) ) ;
#180 = DIRECTION ( 'NONE',  ( -4.012354050806751286E-31, -1.000000000000000000, -1.129377263005736579E-16 ) ) ;
#181 = AXIS2_PLACEMENT_3D ( 'NONE', #139, #17, #180 ) ;
#182 = CARTESIAN_POINT ( 'NONE',  ( 2.914442945444142440E-14, -1.022248976309396081E-15, 8.347296355333845952 ) ) ;
#183 = AXIS2_PLACEMENT_3D ( 'NONE', #271, #161, #163 ) ;
#184 = LOCAL_TIME ( 8, 27, 23.00000000000000000, #128 ) ;
#185 = CONICAL_SURFACE ( 'NONE', #24, 1.499999999999997113, 0.1745329251994260644 ) ;
#186 = DIRECTION ( 'NONE',  ( -3.491481338843133355E-15, 1.224646799147353207E-16, -1.000000000000000000 ) ) ;
#187 = CARTESIAN_POINT ( 'NONE',  ( 1.396592535537253342E-14, 2.699567608791333978E-33, 4.000000000000000000 ) ) ;
#188 = CYLINDRICAL_SURFACE ( 'NONE', #245, 0.3599999999999999312 ) ;
#189 = FACE_OUTER_BOUND ( 'NONE', #114, .T. ) ;
#190 = AXIS2_PLACEMENT_3D ( 'NONE', #35, #63, #238 ) ;
#191 = PLANE ( 'NONE',  #208 ) ;
#192 = DIRECTION ( 'NONE',  ( -4.275831445896958607E-31, -1.000000000000000000, -1.224646799147353207E-16 ) ) ;
#193 = APPROVAL_ROLE ( '' ) ;
#194 = DIRECTION ( 'NONE',  ( 0.0000000000000000000, 1.000000000000000000, 0.0000000000000000000 ) ) ;
#195 = CC_DESIGN_PERSON_AND_ORGANIZATION_ASSIGNMENT ( #118, #54, ( #214 ) ) ;
#196 = CARTESIAN_POINT ( 'NONE',  ( 5.111611987305581408E-14, -1.792912134197796488E-15, 14.64023860141627509 ) ) ;
#197 = CARTESIAN_POINT ( 'NONE',  ( 2.793185071074506684E-14, -9.797174393178825657E-16, 8.000000000000000000 ) ) ;
#198 = EDGE_CURVE ( 'NONE', #80, #80, #219, .T. ) ;
#199 = DIRECTION ( 'NONE',  ( 4.275831445896958607E-31, 1.000000000000000000, 1.224646799147353207E-16 ) ) ;
#200 = APPROVAL_STATUS ( 'not_yet_approved' ) ;
#201 =( NAMED_UNIT ( * ) PLANE_ANGLE_UNIT ( ) SI_UNIT ( $, .RADIAN. ) );
#202 = CARTESIAN_POINT ( 'NONE',  ( 0.0000000000000000000, 0.0000000000000000000, 0.0000000000000000000 ) ) ;
#203 = EDGE_LOOP ( 'NONE', ( #246 ) ) ;
#204 = ORIENTED_EDGE ( 'NONE', *, *, #27, .T. ) ;
#205 = ORIENTED_EDGE ( 'NONE', *, *, #134, .T. ) ;
#206 = ADVANCED_FACE ( 'NONE', ( #105 ), #107, .F. ) ;
#207 = FACE_OUTER_BOUND ( 'NONE', #243, .T. ) ;
#208 = AXIS2_PLACEMENT_3D ( 'NONE', #144, #228, #97 ) ;
#209 = MECHANICAL_CONTEXT ( 'NONE', #171, 'mechanical' ) ;
#210 = DIRECTION ( 'NONE',  ( -3.491481338843133355E-15, 1.224646799147353207E-16, -1.000000000000000000 ) ) ;
#211 = DATE_AND_TIME ( #126, #21 ) ;
#212 = DIRECTION ( 'NONE',  ( -3.491481338843133355E-15, 1.224646799147353207E-16, -1.000000000000000000 ) ) ;
#213 = CARTESIAN_POINT ( 'NONE',  ( 5.111611987305581408E-14, 1.499999999999995559, 14.64023860141627509 ) ) ;
#214 = PRODUCT_DEFINITION_FORMATION_WITH_SPECIFIED_SOURCE ( 'ANY', '', #235, .NOT_KNOWN. ) ;
#215 = DIRECTION ( 'NONE',  ( 4.275831445896958607E-31, 1.000000000000000000, 1.224646799147353207E-16 ) ) ;
#216 = CYLINDRICAL_SURFACE ( 'NONE', #48, 1.500000000000000222 ) ;
#217 = COORDINATED_UNIVERSAL_TIME_OFFSET ( 1, 0, .AHEAD. ) ;
#218 = ORIENTED_EDGE ( 'NONE', *, *, #198, .F. ) ;
#219 = CIRCLE ( 'NONE', #263, 0.3022649730810374469 ) ;
#220 = APPROVAL_PERSON_ORGANIZATION ( #224, #170, #193 ) ;
#221 = CC_DESIGN_PERSON_AND_ORGANIZATION_ASSIGNMENT ( #142, #231, ( #91 ) ) ;
#222 = FACE_BOUND ( 'NONE', #77, .T. ) ;
#223 = FACE_OUTER_BOUND ( 'NONE', #9, .T. ) ;
#224 = PERSON_AND_ORGANIZATION ( #130, #149 ) ;
#225 = ORIENTED_EDGE ( 'NONE', *, *, #157, .F. ) ;
#226 = LOCAL_TIME ( 8, 27, 23.00000000000000000, #150 ) ;
#227 = PERSON_AND_ORGANIZATION ( #130, #149 ) ;
#228 = DIRECTION ( 'NONE',  ( 3.491481338843133355E-15, -1.224646799147353207E-16, 1.000000000000000000 ) ) ;
#229 = CARTESIAN_POINT ( 'NONE',  ( 1.326762908760390423E-13, -4.653657836759941941E-15, 38.00000000000000000 ) ) ;
#230 = CARTESIAN_POINT ( 'NONE',  ( 0.0000000000000000000, 0.0000000000000000000, 0.0000000000000000000 ) ) ;
#231 = PERSON_AND_ORGANIZATION_ROLE ( 'creator' ) ;
#232 = FACE_OUTER_BOUND ( 'NONE', #4, .T. ) ;
#233 = DATE_AND_TIME ( #19, #260 ) ;
#234 = CARTESIAN_POINT ( 'NONE',  ( 2.793185071074506684E-14, -8.673617379884035472E-16, 8.000000000000000000 ) ) ;
#235 = PRODUCT ( '200758', '200758', '', ( #209 ) ) ;
#236 = ADVANCED_BREP_SHAPE_REPRESENTATION ( '200758', ( #47, #45, #100 ), #280 ) ;
#237 = DIRECTION ( 'NONE',  ( 0.0000000000000000000, 1.000000000000000000, 0.0000000000000000000 ) ) ;
#238 = DIRECTION ( 'NONE',  ( 0.0000000000000000000, 1.000000000000000000, 0.0000000000000000000 ) ) ;
#239 = PRODUCT_DEFINITION_SHAPE ( 'NONE', 'NONE',  #91 ) ;
#240 = APPROVAL_ROLE ( '' ) ;
#241 = EDGE_CURVE ( 'NONE', #38, #38, #41, .T. ) ;
#242 = EDGE_LOOP ( 'NONE', ( #70 ) ) ;
#243 = EDGE_LOOP ( 'NONE', ( #268 ) ) ;
#244 = CC_DESIGN_PERSON_AND_ORGANIZATION_ASSIGNMENT ( #101, #146, ( #235 ) ) ;
#245 = AXIS2_PLACEMENT_3D ( 'NONE', #202, #186, #264 ) ;
#246 = ORIENTED_EDGE ( 'NONE', *, *, #198, .T. ) ;
#247 = FACE_OUTER_BOUND ( 'NONE', #23, .T. ) ;
#248 = CARTESIAN_POINT ( 'NONE',  ( 5.111611987305581408E-14, -1.792912134197796488E-15, 14.64023860141627509 ) ) ;
#249 = CIRCLE ( 'NONE', #190, 0.3599999999999996536 ) ;
#250 = SECURITY_CLASSIFICATION_LEVEL ( 'unclassified' ) ;
#251 = FACE_OUTER_BOUND ( 'NONE', #49, .T. ) ;
#252 = CC_DESIGN_SECURITY_CLASSIFICATION ( #3, ( #214 ) ) ;
#253 = CARTESIAN_POINT ( 'NONE',  ( 1.316288464743861212E-13, -4.616918432785521081E-15, 37.69999999999999574 ) ) ;
#254 = DIRECTION ( 'NONE',  ( 4.275831445896957731E-31, 1.000000000000000000, 1.224646799147353207E-16 ) ) ;
#255 = CALENDAR_DATE ( 2021, 1, 12 ) ;
#256 = CARTESIAN_POINT ( 'NONE',  ( 0.0000000000000000000, 0.3022649730810374469, 0.0000000000000000000 ) ) ;
#257 = VERTEX_POINT ( 'NONE', #152 ) ;
#258 = FACE_OUTER_BOUND ( 'NONE', #50, .T. ) ;
#259 = DIRECTION ( 'NONE',  ( 3.491481338843133355E-15, -1.224646799147353207E-16, 1.000000000000000000 ) ) ;
#260 = LOCAL_TIME ( 8, 27, 23.00000000000000000, #217 ) ;
#261 = PERSON_AND_ORGANIZATION ( #130, #149 ) ;
#262 = AXIS2_PLACEMENT_3D ( 'NONE', #30, #76, #254 ) ;
#263 = AXIS2_PLACEMENT_3D ( 'NONE', #42, #153, #215 ) ;
#264 = DIRECTION ( 'NONE',  ( 4.275831445896958607E-31, 1.000000000000000000, 1.224646799147353207E-16 ) ) ;
#265 = EDGE_LOOP ( 'NONE', ( #115 ) ) ;
#266 = ADVANCED_FACE ( 'NONE', ( #62 ), #277, .F. ) ;
#267 = APPLICATION_PROTOCOL_DEFINITION ( 'international standard', 'config_control_design', 1994, #171 ) ;
#268 = ORIENTED_EDGE ( 'NONE', *, *, #162, .F. ) ;
#269 = CARTESIAN_POINT ( 'NONE',  ( 0.0000000000000000000, 0.0000000000000000000, 0.0000000000000000000 ) ) ;
#270 = ORIENTED_EDGE ( 'NONE', *, *, #241, .T. ) ;
#271 = CARTESIAN_POINT ( 'NONE',  ( 1.396592535537253342E-14, -4.898587196589412829E-16, 4.000000000000000000 ) ) ;
#272 = PERSON_AND_ORGANIZATION ( #130, #149 ) ;
#273 = CARTESIAN_POINT ( 'NONE',  ( 2.914442945444142440E-14, 0.3903844939755803933, 8.347296355333845952 ) ) ;
#274 = CALENDAR_DATE ( 2021, 1, 12 ) ;
#275 = CARTESIAN_POINT ( 'NONE',  ( 1.396592535537253342E-14, 0.3599999999999991540, 4.000000000000000000 ) ) ;
#276 =( LENGTH_UNIT ( ) NAMED_UNIT ( * ) SI_UNIT ( .MILLI., .METRE. ) );
#277 = PLANE ( 'NONE',  #34 ) ;
#278 = DATE_AND_TIME ( #154, #184 ) ;
#279 = DIRECTION ( 'NONE',  ( -3.491481338843133355E-15, 1.224646799147353207E-16, -1.000000000000000000 ) ) ;
#280 =( GEOMETRIC_REPRESENTATION_CONTEXT ( 3 ) GLOBAL_UNCERTAINTY_ASSIGNED_CONTEXT ( ( #22 ) ) GLOBAL_UNIT_ASSIGNED_CONTEXT ( ( #276, #201, #172 ) ) REPRESENTATION_CONTEXT ( 'NONE', 'WORKASPACE' ) );
#281 = SHAPE_DEFINITION_REPRESENTATION ( #239, #236 ) ;
#282 = EDGE_CURVE ( 'NONE', #129, #129, #44, .T. ) ;
#283 = ORIENTED_EDGE ( 'NONE', *, *, #27, .F. ) ;
ENDSEC;
END-ISO-10303-21;
