ISO-10303-21;
HEADER;
FILE_DESCRIPTION (( 'STEP AP203' ),
    '1' );
FILE_NAME ('200757.step',
    '2021-12-01T10:39:54',
    ( '' ),
    ( '' ),
    'SwSTEP 2.0',
    'SolidWorks 2019',
    '' );
FILE_SCHEMA (( 'CONFIG_CONTROL_DESIGN' ));
ENDSEC;

DATA;
#1 = COORDINATED_UNIVERSAL_TIME_OFFSET ( 1, 0, .AHEAD. ) ;
#2 = EDGE_LOOP ( 'NONE', ( #99 ) ) ;
#3 = PERSON_AND_ORGANIZATION_ROLE ( 'creator' ) ;
#4 = CARTESIAN_POINT ( 'NONE',  ( 1.414734804754918526E-14, -4.962221710912908580E-16, 4.051961524227067457 ) ) ;
#5 = FACE_BOUND ( 'NONE', #104, .T. ) ;
#6 = PERSON_AND_ORGANIZATION_ROLE ( 'design_supplier' ) ;
#7 = PERSON_AND_ORGANIZATION ( #79, #61 ) ;
#8 = ADVANCED_BREP_SHAPE_REPRESENTATION ( '200757', ( #43, #240, #232 ), #180 ) ;
#9 = COORDINATED_UNIVERSAL_TIME_OFFSET ( 1, 0, .AHEAD. ) ;
#10 = DIRECTION ( 'NONE',  ( 4.275831445896958607E-31, 1.000000000000000000, 1.224646799147353454E-16 ) ) ;
#11 = DIRECTION ( 'NONE',  ( -3.491481338843133355E-15, 1.224646799147353207E-16, -1.000000000000000000 ) ) ;
#12 = ORIENTED_EDGE ( 'NONE', *, *, #191, .T. ) ;
#13 = CIRCLE ( 'NONE', #163, 1.500000000000003331 ) ;
#14 = CARTESIAN_POINT ( 'NONE',  ( 2.914442945444142440E-14, -1.022248976309396081E-15, 8.347296355333845952 ) ) ;
#15 = ADVANCED_FACE ( 'NONE', ( #144, #67 ), #251, .T. ) ;
#16 = CYLINDRICAL_SURFACE ( 'NONE', #89, 0.3999999999999997446 ) ;
#17 = AXIS2_PLACEMENT_3D ( 'NONE', #287, #206, #48 ) ;
#18 = CARTESIAN_POINT ( 'NONE',  ( 2.793185071074506684E-14, 0.3699999999999987743, 8.000000000000000000 ) ) ;
#19 = LOCAL_TIME ( 11, 39, 54.00000000000000000, #47 ) ;
#20 = CARTESIAN_POINT ( 'NONE',  ( 5.091810812665067066E-14, 1.499999999999995559, 14.58352578322010018 ) ) ;
#21 = DIRECTION ( 'NONE',  ( 4.814824860968095763E-31, 1.000000000000000000, 1.355252715606882268E-16 ) ) ;
#22 = FACE_BOUND ( 'NONE', #35, .T. ) ;
#23 = EDGE_CURVE ( 'NONE', #81, #81, #40, .T. ) ;
#24 = DIRECTION ( 'NONE',  ( -4.275831445896958607E-31, -1.000000000000000000, -1.224646799147353207E-16 ) ) ;
#25 = EDGE_LOOP ( 'NONE', ( #248 ) ) ;
#26 = CIRCLE ( 'NONE', #196, 0.4003844939755807908 ) ;
#27 = CIRCLE ( 'NONE', #115, 0.3699999999999994960 ) ;
#28 = PRODUCT_DEFINITION ( 'UNKNOWN', '', #126, #55 ) ;
#29 = CALENDAR_DATE ( 2021, 1, 12 ) ;
#30 = CC_DESIGN_PERSON_AND_ORGANIZATION_ASSIGNMENT ( #7, #282, ( #149 ) ) ;
#31 = CIRCLE ( 'NONE', #17, 1.200000000000003286 ) ;
#32 = CALENDAR_DATE ( 2021, 1, 12 ) ;
#33 = DIRECTION ( 'NONE',  ( -3.491481338843133355E-15, 1.224646799147353207E-16, -1.000000000000000000 ) ) ;
#34 = CC_DESIGN_PERSON_AND_ORGANIZATION_ASSIGNMENT ( #201, #6, ( #126 ) ) ;
#35 = EDGE_LOOP ( 'NONE', ( #218 ) ) ;
#36 = EDGE_LOOP ( 'NONE', ( #80 ) ) ;
#37 = CIRCLE ( 'NONE', #46, 0.4000000000000000222 ) ;
#38 = AXIS2_PLACEMENT_3D ( 'NONE', #4, #284, #203 ) ;
#39 = ADVANCED_FACE ( 'NONE', ( #205, #112 ), #182, .T. ) ;
#40 = CIRCLE ( 'NONE', #241, 0.3422649730810378155 ) ;
#41 = PERSON_AND_ORGANIZATION ( #79, #61 ) ;
#42 = CARTESIAN_POINT ( 'NONE',  ( 1.396592535537253342E-14, 2.999519565323707689E-33, 4.000000000000000000 ) ) ;
#43 = MANIFOLD_SOLID_BREP ( 'Corps-Déplacer/Copier1[1]', #145 ) ;
#44 = ORIENTED_EDGE ( 'NONE', *, *, #151, .F. ) ;
#45 = EDGE_CURVE ( 'NONE', #273, #273, #27, .T. ) ;
#46 = AXIS2_PLACEMENT_3D ( 'NONE', #113, #141, #231 ) ;
#47 = COORDINATED_UNIVERSAL_TIME_OFFSET ( 1, 0, .AHEAD. ) ;
#48 = DIRECTION ( 'NONE',  ( 0.0000000000000000000, 1.000000000000000000, 0.0000000000000000000 ) ) ;
#49 = APPROVAL_ROLE ( '' ) ;
#50 = AXIS2_PLACEMENT_3D ( 'NONE', #161, #236, #221 ) ;
#51 = SHAPE_DEFINITION_REPRESENTATION ( #176, #8 ) ;
#52 = EDGE_CURVE ( 'NONE', #216, #216, #94, .T. ) ;
#53 = DIRECTION ( 'NONE',  ( 0.0000000000000000000, 1.000000000000000000, 0.0000000000000000000 ) ) ;
#54 = CC_DESIGN_SECURITY_CLASSIFICATION ( #149, ( #126 ) ) ;
#55 = DESIGN_CONTEXT ( 'detailed design', #267, 'design' ) ;
#56 = AXIS2_PLACEMENT_3D ( 'NONE', #138, #297, #120 ) ;
#57 = VERTEX_POINT ( 'NONE', #195 ) ;
#58 = ORIENTED_EDGE ( 'NONE', *, *, #65, .T. ) ;
#59 =( NAMED_UNIT ( * ) SI_UNIT ( $, .STERADIAN. ) SOLID_ANGLE_UNIT ( ) );
#60 = EDGE_LOOP ( 'NONE', ( #58 ) ) ;
#61 = ORGANIZATION ( 'UNSPECIFIED', 'UNSPECIFIED', '' ) ;
#62 = CARTESIAN_POINT ( 'NONE',  ( 1.316288464743861212E-13, 1.499999999999998668, 37.69999999999999574 ) ) ;
#63 = ORIENTED_EDGE ( 'NONE', *, *, #95, .F. ) ;
#64 = VERTEX_POINT ( 'NONE', #18 ) ;
#65 = EDGE_CURVE ( 'NONE', #88, #88, #13, .T. ) ;
#66 = APPROVAL_DATE_TIME ( #136, #238 ) ;
#67 = FACE_OUTER_BOUND ( 'NONE', #60, .T. ) ;
#68 = FACE_OUTER_BOUND ( 'NONE', #242, .T. ) ;
#69 = CALENDAR_DATE ( 2021, 1, 12 ) ;
#70 = APPROVAL_ROLE ( '' ) ;
#71 = CARTESIAN_POINT ( 'NONE',  ( 1.396592535537253342E-14, -4.898587196589412829E-16, 4.000000000000000000 ) ) ;
#72 = CONICAL_SURFACE ( 'NONE', #208, 1.200000000000003286, 0.7853981633974453924 ) ;
#73 = PERSON_AND_ORGANIZATION ( #79, #61 ) ;
#74 = ADVANCED_FACE ( 'NONE', ( #213, #210 ), #16, .T. ) ;
#75 = APPROVAL_PERSON_ORGANIZATION ( #84, #238, #128 ) ;
#76 = FACE_OUTER_BOUND ( 'NONE', #186, .T. ) ;
#77 = AXIS2_PLACEMENT_3D ( 'NONE', #192, #202, #225 ) ;
#78 = DIRECTION ( 'NONE',  ( -3.491481338843133355E-15, 1.224646799147353207E-16, -1.000000000000000000 ) ) ;
#79 = PERSON ( 'UNSPECIFIED', 'UNSPECIFIED', 'UNSPECIFIED', ('UNSPECIFIED'), ('UNSPECIFIED'), ('UNSPECIFIED') ) ;
#80 = ORIENTED_EDGE ( 'NONE', *, *, #65, .F. ) ;
#81 = VERTEX_POINT ( 'NONE', #298 ) ;
#82 = DIRECTION ( 'NONE',  ( 4.275831445896958607E-31, 1.000000000000000000, 1.224646799147353207E-16 ) ) ;
#83 = ORIENTED_EDGE ( 'NONE', *, *, #118, .F. ) ;
#84 = PERSON_AND_ORGANIZATION ( #79, #61 ) ;
#85 = APPLICATION_PROTOCOL_DEFINITION ( 'international standard', 'config_control_design', 1994, #267 ) ;
#86 = ORIENTED_EDGE ( 'NONE', *, *, #52, .T. ) ;
#87 = EDGE_CURVE ( 'NONE', #246, #246, #26, .T. ) ;
#88 = VERTEX_POINT ( 'NONE', #62 ) ;
#89 = AXIS2_PLACEMENT_3D ( 'NONE', #288, #78, #260 ) ;
#90 = DIRECTION ( 'NONE',  ( -3.491481338843133355E-15, 1.224646799147353207E-16, -1.000000000000000000 ) ) ;
#91 = DATE_AND_TIME ( #154, #244 ) ;
#92 = CARTESIAN_POINT ( 'NONE',  ( 0.0000000000000000000, 0.0000000000000000000, 0.0000000000000000000 ) ) ;
#93 = PERSON_AND_ORGANIZATION ( #79, #61 ) ;
#94 = CIRCLE ( 'NONE', #132, 1.499999999999997113 ) ;
#95 = EDGE_CURVE ( 'NONE', #57, #57, #37, .T. ) ;
#96 = PRODUCT_RELATED_PRODUCT_CATEGORY ( 'detail', '', ( #229 ) ) ;
#97 = PLANE ( 'NONE',  #77 ) ;
#98 = CARTESIAN_POINT ( 'NONE',  ( 1.396592535537253342E-14, 0.3999999999999995226, 4.000000000000000000 ) ) ;
#99 = ORIENTED_EDGE ( 'NONE', *, *, #87, .T. ) ;
#100 = APPROVAL_PERSON_ORGANIZATION ( #93, #175, #49 ) ;
#101 = ORIENTED_EDGE ( 'NONE', *, *, #95, .T. ) ;
#102 = CARTESIAN_POINT ( 'NONE',  ( 1.326762908760390423E-13, 1.199999999999998845, 38.00000000000000000 ) ) ;
#103 = DIRECTION ( 'NONE',  ( -3.491481338843133355E-15, 1.224646799147353207E-16, -1.000000000000000000 ) ) ;
#104 = EDGE_LOOP ( 'NONE', ( #274 ) ) ;
#105 = FACE_OUTER_BOUND ( 'NONE', #197, .T. ) ;
#106 = APPROVAL ( #281, 'UNSPECIFIED' ) ;
#107 = VERTEX_POINT ( 'NONE', #271 ) ;
#108 = CARTESIAN_POINT ( 'NONE',  ( 2.914442945444142440E-14, 0.4003844939755797916, 8.347296355333845952 ) ) ;
#109 = EDGE_LOOP ( 'NONE', ( #86 ) ) ;
#110 = CALENDAR_DATE ( 2021, 1, 12 ) ;
#111 = ADVANCED_FACE ( 'NONE', ( #207, #5 ), #72, .T. ) ;
#112 = FACE_BOUND ( 'NONE', #276, .T. ) ;
#113 = CARTESIAN_POINT ( 'NONE',  ( 1.396592535537253342E-14, -4.898587196589412829E-16, 4.000000000000000000 ) ) ;
#114 = FACE_BOUND ( 'NONE', #168, .T. ) ;
#115 = AXIS2_PLACEMENT_3D ( 'NONE', #137, #155, #259 ) ;
#116 = CARTESIAN_POINT ( 'NONE',  ( 1.316288464743861212E-13, -4.616918432785521081E-15, 37.69999999999999574 ) ) ;
#117 = DIRECTION ( 'NONE',  ( 4.275831445896958607E-31, 1.000000000000000000, 1.224646799147353207E-16 ) ) ;
#118 = EDGE_CURVE ( 'NONE', #64, #64, #239, .T. ) ;
#119 = AXIS2_PLACEMENT_3D ( 'NONE', #125, #103, #82 ) ;
#120 = DIRECTION ( 'NONE',  ( -4.275831445896958607E-31, -1.000000000000000000, -1.224646799147353207E-16 ) ) ;
#121 = CARTESIAN_POINT ( 'NONE',  ( 0.0000000000000000000, 0.0000000000000000000, 0.0000000000000000000 ) ) ;
#122 = ORIENTED_EDGE ( 'NONE', *, *, #118, .T. ) ;
#123 = DIRECTION ( 'NONE',  ( 0.0000000000000000000, 0.0000000000000000000, 1.000000000000000000 ) ) ;
#124 = CC_DESIGN_PERSON_AND_ORGANIZATION_ASSIGNMENT ( #134, #3, ( #126 ) ) ;
#125 = CARTESIAN_POINT ( 'NONE',  ( 1.326762908760390423E-13, 8.998558695971103225E-33, 38.00000000000000000 ) ) ;
#126 = PRODUCT_DEFINITION_FORMATION_WITH_SPECIFIED_SOURCE ( 'ANY', '', #229, .NOT_KNOWN. ) ;
#127 = CARTESIAN_POINT ( 'NONE',  ( 3.491481338843131876E-16, -1.224646799147352653E-17, 0.09999999999999995004 ) ) ;
#128 = APPROVAL_ROLE ( '' ) ;
#129 = ORIENTED_EDGE ( 'NONE', *, *, #191, .F. ) ;
#130 = CC_DESIGN_PERSON_AND_ORGANIZATION_ASSIGNMENT ( #41, #296, ( #229 ) ) ;
#131 = DIRECTION ( 'NONE',  ( 3.491481338843133355E-15, -1.224646799147353207E-16, 1.000000000000000000 ) ) ;
#132 = AXIS2_PLACEMENT_3D ( 'NONE', #140, #235, #237 ) ;
#133 = PERSON_AND_ORGANIZATION_ROLE ( 'creator' ) ;
#134 = PERSON_AND_ORGANIZATION ( #79, #61 ) ;
#135 = DIRECTION ( 'NONE',  ( 4.275831445896959482E-31, 1.000000000000000000, 1.224646799147353207E-16 ) ) ;
#136 = DATE_AND_TIME ( #32, #262 ) ;
#137 = CARTESIAN_POINT ( 'NONE',  ( 1.414734804754918526E-14, -4.962221710912908580E-16, 4.051961524227067457 ) ) ;
#138 = CARTESIAN_POINT ( 'NONE',  ( -7.317336673644888392E-32, 2.566576208203919681E-33, -2.095768518719740175E-17 ) ) ;
#139 = APPROVAL_DATE_TIME ( #91, #175 ) ;
#140 = CARTESIAN_POINT ( 'NONE',  ( 5.091810812665067066E-14, -1.785966817070339305E-15, 14.58352578322010018 ) ) ;
#141 = DIRECTION ( 'NONE',  ( -3.491481338843133355E-15, 1.224646799147353207E-16, -1.000000000000000000 ) ) ;
#142 = APPROVAL_PERSON_ORGANIZATION ( #73, #106, #70 ) ;
#143 = ORIENTED_EDGE ( 'NONE', *, *, #151, .T. ) ;
#144 = FACE_OUTER_BOUND ( 'NONE', #194, .T. ) ;
#145 = CLOSED_SHELL ( 'NONE', ( #290, #39, #165, #252, #283, #15, #111, #217 ) ) ;
#146 = VERTEX_POINT ( 'NONE', #98 ) ;
#147 = PLANE ( 'NONE',  #119 ) ;
#148 = APPROVAL_STATUS ( 'not_yet_approved' ) ;
#149 = SECURITY_CLASSIFICATION ( '', '', #173 ) ;
#150 =( LENGTH_UNIT ( ) NAMED_UNIT ( * ) SI_UNIT ( .MILLI., .METRE. ) );
#151 = EDGE_CURVE ( 'NONE', #107, #107, #255, .T. ) ;
#152 = VERTEX_POINT ( 'NONE', #102 ) ;
#153 = AXIS2_PLACEMENT_3D ( 'NONE', #275, #131, #265 ) ;
#154 = CALENDAR_DATE ( 2021, 1, 12 ) ;
#155 = DIRECTION ( 'NONE',  ( -3.491481338843133355E-15, 1.224646799147353207E-16, -1.000000000000000000 ) ) ;
#156 = DATE_AND_TIME ( #110, #19 ) ;
#157 = DIRECTION ( 'NONE',  ( -3.491481338843133355E-15, 1.224646799147353207E-16, -1.000000000000000000 ) ) ;
#158 = UNCERTAINTY_MEASURE_WITH_UNIT (LENGTH_MEASURE( 1.000000000000000082E-05 ), #150, 'distance_accuracy_value', 'NONE');
#159 = CARTESIAN_POINT ( 'NONE',  ( 0.0000000000000000000, 0.0000000000000000000, 0.0000000000000000000 ) ) ;
#160 = CC_DESIGN_APPROVAL ( #238, ( #28 ) ) ;
#161 = CARTESIAN_POINT ( 'NONE',  ( 2.793185071074506684E-14, -9.797174393178825657E-16, 8.000000000000000000 ) ) ;
#162 = ORIENTED_EDGE ( 'NONE', *, *, #45, .T. ) ;
#163 = AXIS2_PLACEMENT_3D ( 'NONE', #116, #211, #263 ) ;
#164 = MECHANICAL_CONTEXT ( 'NONE', #214, 'mechanical' ) ;
#165 = ADVANCED_FACE ( 'NONE', ( #105, #181 ), #209, .T. ) ;
#166 = DIRECTION ( 'NONE',  ( 3.491481338843133355E-15, -1.224646799147353207E-16, 1.000000000000000000 ) ) ;
#167 = AXIS2_PLACEMENT_3D ( 'NONE', #286, #157, #117 ) ;
#168 = EDGE_LOOP ( 'NONE', ( #291 ) ) ;
#169 = DIRECTION ( 'NONE',  ( 3.491481338843133355E-15, -1.224646799147353207E-16, 1.000000000000000000 ) ) ;
#170 = ORIENTED_EDGE ( 'NONE', *, *, #52, .F. ) ;
#171 = EDGE_LOOP ( 'NONE', ( #44 ) ) ;
#172 = EDGE_CURVE ( 'NONE', #152, #152, #31, .T. ) ;
#173 = SECURITY_CLASSIFICATION_LEVEL ( 'unclassified' ) ;
#174 = CC_DESIGN_APPROVAL ( #106, ( #149 ) ) ;
#175 = APPROVAL ( #278, 'UNSPECIFIED' ) ;
#176 = PRODUCT_DEFINITION_SHAPE ( 'NONE', 'NONE',  #28 ) ;
#177 = DATE_AND_TIME ( #29, #279 ) ;
#178 = FACE_OUTER_BOUND ( 'NONE', #303, .T. ) ;
#179 = COORDINATED_UNIVERSAL_TIME_OFFSET ( 1, 0, .AHEAD. ) ;
#180 =( GEOMETRIC_REPRESENTATION_CONTEXT ( 3 ) GLOBAL_UNCERTAINTY_ASSIGNED_CONTEXT ( ( #158 ) ) GLOBAL_UNIT_ASSIGNED_CONTEXT ( ( #150, #193, #59 ) ) REPRESENTATION_CONTEXT ( 'NONE', 'WORKASPACE' ) );
#181 = FACE_OUTER_BOUND ( 'NONE', #272, .T. ) ;
#182 = CONICAL_SURFACE ( 'NONE', #38, 0.3699999999999994960, 0.5235987755982949299 ) ;
#183 = CONICAL_SURFACE ( 'NONE', #153, 0.3999999999999995226, 0.5235987755982922653 ) ;
#184 = PLANE ( 'NONE',  #56 ) ;
#185 = DIRECTION ( 'NONE',  ( 0.0000000000000000000, -1.000000000000000000, 0.0000000000000000000 ) ) ;
#186 = EDGE_LOOP ( 'NONE', ( #129 ) ) ;
#187 = EDGE_LOOP ( 'NONE', ( #12 ) ) ;
#188 = AXIS2_PLACEMENT_3D ( 'NONE', #71, #90, #204 ) ;
#189 = DIRECTION ( 'NONE',  ( 1.000000000000000000, 0.0000000000000000000, 0.0000000000000000000 ) ) ;
#190 = EDGE_LOOP ( 'NONE', ( #143 ) ) ;
#191 = EDGE_CURVE ( 'NONE', #146, #146, #228, .T. ) ;
#192 = CARTESIAN_POINT ( 'NONE',  ( 1.396592535537253342E-14, 2.999519565323707689E-33, 4.000000000000000000 ) ) ;
#193 =( NAMED_UNIT ( * ) PLANE_ANGLE_UNIT ( ) SI_UNIT ( $, .RADIAN. ) );
#194 = EDGE_LOOP ( 'NONE', ( #170 ) ) ;
#195 = CARTESIAN_POINT ( 'NONE',  ( 1.396592535537253342E-14, 0.3999999999999995226, 4.000000000000000000 ) ) ;
#196 = AXIS2_PLACEMENT_3D ( 'NONE', #14, #33, #53 ) ;
#197 = EDGE_LOOP ( 'NONE', ( #243 ) ) ;
#198 = AXIS2_PLACEMENT_3D ( 'NONE', #92, #200, #135 ) ;
#199 = DATE_TIME_ROLE ( 'classification_date' ) ;
#200 = DIRECTION ( 'NONE',  ( -3.491481338843133355E-15, 1.224646799147353207E-16, -1.000000000000000000 ) ) ;
#201 = PERSON_AND_ORGANIZATION ( #79, #61 ) ;
#202 = DIRECTION ( 'NONE',  ( 3.491481338843133355E-15, -1.224646799147353207E-16, 1.000000000000000000 ) ) ;
#203 = DIRECTION ( 'NONE',  ( 0.0000000000000000000, 1.000000000000000000, 0.0000000000000000000 ) ) ;
#204 = DIRECTION ( 'NONE',  ( 0.0000000000000000000, 1.000000000000000000, 0.0000000000000000000 ) ) ;
#205 = FACE_OUTER_BOUND ( 'NONE', #299, .T. ) ;
#206 = DIRECTION ( 'NONE',  ( -3.491481338843133355E-15, 1.224646799147353207E-16, -1.000000000000000000 ) ) ;
#207 = FACE_OUTER_BOUND ( 'NONE', #36, .T. ) ;
#208 = AXIS2_PLACEMENT_3D ( 'NONE', #256, #11, #226 ) ;
#209 = CYLINDRICAL_SURFACE ( 'NONE', #245, 0.3699999999999996625 ) ;
#210 = FACE_OUTER_BOUND ( 'NONE', #187, .T. ) ;
#211 = DIRECTION ( 'NONE',  ( -3.491481338843133355E-15, 1.224646799147353207E-16, -1.000000000000000000 ) ) ;
#212 = TOROIDAL_SURFACE ( 'NONE', #167, 2.369999999999999662, 2.000000000000000000 ) ;
#213 = FACE_OUTER_BOUND ( 'NONE', #171, .T. ) ;
#214 = APPLICATION_CONTEXT ( 'configuration controlled 3d designs of mechanical parts and assemblies' ) ;
#215 = FACE_OUTER_BOUND ( 'NONE', #190, .T. ) ;
#216 = VERTEX_POINT ( 'NONE', #20 ) ;
#217 = ADVANCED_FACE ( 'NONE', ( #269 ), #147, .F. ) ;
#218 = ORIENTED_EDGE ( 'NONE', *, *, #23, .F. ) ;
#219 = DIRECTION ( 'NONE',  ( -3.491481338843133355E-15, 1.224646799147353207E-16, -1.000000000000000000 ) ) ;
#220 = FACE_OUTER_BOUND ( 'NONE', #249, .T. ) ;
#221 = DIRECTION ( 'NONE',  ( 0.0000000000000000000, 1.000000000000000000, 0.0000000000000000000 ) ) ;
#222 = ADVANCED_FACE ( 'NONE', ( #76 ), #97, .T. ) ;
#223 = CONICAL_SURFACE ( 'NONE', #285, 1.499999999999997113, 0.1745329251994260089 ) ;
#224 = PERSON_AND_ORGANIZATION ( #79, #61 ) ;
#225 = DIRECTION ( 'NONE',  ( -4.275831445896958607E-31, -1.000000000000000000, -1.224646799147353207E-16 ) ) ;
#226 = DIRECTION ( 'NONE',  ( 0.0000000000000000000, 1.000000000000000000, 0.0000000000000000000 ) ) ;
#227 = DATE_AND_TIME ( #69, #264 ) ;
#228 = CIRCLE ( 'NONE', #188, 0.4000000000000000222 ) ;
#229 = PRODUCT ( '200757', '200757', '', ( #164 ) ) ;
#230 = CARTESIAN_POINT ( 'NONE',  ( -1.463467334728977678E-31, 5.133152416407839361E-33, -4.191537037439480350E-17 ) ) ;
#231 = DIRECTION ( 'NONE',  ( 0.0000000000000000000, 1.000000000000000000, 0.0000000000000000000 ) ) ;
#232 = AXIS2_PLACEMENT_3D ( 'NONE', #121, #123, #189 ) ;
#233 = CC_DESIGN_DATE_AND_TIME_ASSIGNMENT ( #227, #277, ( #28 ) ) ;
#234 = DIRECTION ( 'NONE',  ( 4.275831445896958607E-31, 1.000000000000000000, 1.224646799147353207E-16 ) ) ;
#235 = DIRECTION ( 'NONE',  ( -3.491481338843133355E-15, 1.224646799147353207E-16, -1.000000000000000000 ) ) ;
#236 = DIRECTION ( 'NONE',  ( -3.491481338843133355E-15, 1.224646799147353207E-16, -1.000000000000000000 ) ) ;
#237 = DIRECTION ( 'NONE',  ( 0.0000000000000000000, 1.000000000000000000, 0.0000000000000000000 ) ) ;
#238 = APPROVAL ( #148, 'UNSPECIFIED' ) ;
#239 = CIRCLE ( 'NONE', #50, 0.3699999999999997735 ) ;
#240 = MANIFOLD_SOLID_BREP ( 'Corps-Déplacer/Copier1[2]', #258 ) ;
#241 = AXIS2_PLACEMENT_3D ( 'NONE', #230, #254, #10 ) ;
#242 = EDGE_LOOP ( 'NONE', ( #83 ) ) ;
#243 = ORIENTED_EDGE ( 'NONE', *, *, #45, .F. ) ;
#244 = LOCAL_TIME ( 11, 39, 54.00000000000000000, #257 ) ;
#245 = AXIS2_PLACEMENT_3D ( 'NONE', #159, #261, #234 ) ;
#246 = VERTEX_POINT ( 'NONE', #108 ) ;
#247 = FACE_OUTER_BOUND ( 'NONE', #109, .T. ) ;
#248 = ORIENTED_EDGE ( 'NONE', *, *, #172, .F. ) ;
#249 = EDGE_LOOP ( 'NONE', ( #101 ) ) ;
#250 = AXIS2_PLACEMENT_3D ( 'NONE', #42, #166, #24 ) ;
#251 = CYLINDRICAL_SURFACE ( 'NONE', #198, 1.500000000000000222 ) ;
#252 = ADVANCED_FACE ( 'NONE', ( #68, #295 ), #212, .F. ) ;
#253 = APPROVAL_DATE_TIME ( #156, #106 ) ;
#254 = DIRECTION ( 'NONE',  ( -3.491481338843133355E-15, 1.224646799147353207E-16, -1.000000000000000000 ) ) ;
#255 = CIRCLE ( 'NONE', #301, 0.3999999999999995226 ) ;
#256 = CARTESIAN_POINT ( 'NONE',  ( 1.326762908760390423E-13, -4.653657836759941941E-15, 38.00000000000000000 ) ) ;
#257 = COORDINATED_UNIVERSAL_TIME_OFFSET ( 1, 0, .AHEAD. ) ;
#258 = CLOSED_SHELL ( 'NONE', ( #280, #300, #74, #222 ) ) ;
#259 = DIRECTION ( 'NONE',  ( 0.0000000000000000000, 1.000000000000000000, 0.0000000000000000000 ) ) ;
#260 = DIRECTION ( 'NONE',  ( 4.275831445896958607E-31, 1.000000000000000000, 1.224646799147353207E-16 ) ) ;
#261 = DIRECTION ( 'NONE',  ( -3.491481338843133355E-15, 1.224646799147353207E-16, -1.000000000000000000 ) ) ;
#262 = LOCAL_TIME ( 11, 39, 54.00000000000000000, #9 ) ;
#263 = DIRECTION ( 'NONE',  ( 0.0000000000000000000, 1.000000000000000000, 0.0000000000000000000 ) ) ;
#264 = LOCAL_TIME ( 11, 39, 54.00000000000000000, #1 ) ;
#265 = DIRECTION ( 'NONE',  ( -4.814824860968095763E-31, -1.000000000000000000, -1.355252715606882268E-16 ) ) ;
#266 = CC_DESIGN_PERSON_AND_ORGANIZATION_ASSIGNMENT ( #224, #133, ( #28 ) ) ;
#267 = APPLICATION_CONTEXT ( 'configuration controlled 3d designs of mechanical parts and assemblies' ) ;
#268 = CARTESIAN_POINT ( 'NONE',  ( 1.414734804754918526E-14, 0.3699999999999989964, 4.051961524227067457 ) ) ;
#269 = FACE_OUTER_BOUND ( 'NONE', #25, .T. ) ;
#270 = CC_DESIGN_DATE_AND_TIME_ASSIGNMENT ( #177, #199, ( #149 ) ) ;
#271 = CARTESIAN_POINT ( 'NONE',  ( 3.491481338843133848E-16, 0.3999999999999995226, 0.1000000000000000056 ) ) ;
#272 = EDGE_LOOP ( 'NONE', ( #122 ) ) ;
#273 = VERTEX_POINT ( 'NONE', #268 ) ;
#274 = ORIENTED_EDGE ( 'NONE', *, *, #172, .T. ) ;
#275 = CARTESIAN_POINT ( 'NONE',  ( 3.491481338843131876E-16, -1.224646799147352653E-17, 0.09999999999999995004 ) ) ;
#276 = EDGE_LOOP ( 'NONE', ( #162 ) ) ;
#277 = DATE_TIME_ROLE ( 'creation_date' ) ;
#278 = APPROVAL_STATUS ( 'not_yet_approved' ) ;
#279 = LOCAL_TIME ( 11, 39, 54.00000000000000000, #179 ) ;
#280 = ADVANCED_FACE ( 'NONE', ( #178 ), #184, .F. ) ;
#281 = APPROVAL_STATUS ( 'not_yet_approved' ) ;
#282 = PERSON_AND_ORGANIZATION_ROLE ( 'classification_officer' ) ;
#283 = ADVANCED_FACE ( 'NONE', ( #114, #247 ), #223, .T. ) ;
#284 = DIRECTION ( 'NONE',  ( -3.491481338843133355E-15, 1.224646799147353207E-16, -1.000000000000000000 ) ) ;
#285 = AXIS2_PLACEMENT_3D ( 'NONE', #289, #169, #185 ) ;
#286 = CARTESIAN_POINT ( 'NONE',  ( 2.793185071074506684E-14, -8.673617379884035472E-16, 8.000000000000000000 ) ) ;
#287 = CARTESIAN_POINT ( 'NONE',  ( 1.326762908760390423E-13, -4.653657836759941941E-15, 38.00000000000000000 ) ) ;
#288 = CARTESIAN_POINT ( 'NONE',  ( 0.0000000000000000000, 0.0000000000000000000, 0.0000000000000000000 ) ) ;
#289 = CARTESIAN_POINT ( 'NONE',  ( 5.091810812665067066E-14, -1.785966817070339305E-15, 14.58352578322010018 ) ) ;
#290 = ADVANCED_FACE ( 'NONE', ( #220 ), #302, .F. ) ;
#291 = ORIENTED_EDGE ( 'NONE', *, *, #87, .F. ) ;
#292 = CC_DESIGN_APPROVAL ( #175, ( #126 ) ) ;
#293 = APPLICATION_PROTOCOL_DEFINITION ( 'international standard', 'config_control_design', 1994, #214 ) ;
#294 = ORIENTED_EDGE ( 'NONE', *, *, #23, .T. ) ;
#295 = FACE_OUTER_BOUND ( 'NONE', #2, .T. ) ;
#296 = PERSON_AND_ORGANIZATION_ROLE ( 'design_owner' ) ;
#297 = DIRECTION ( 'NONE',  ( 3.491481338843133355E-15, -1.224646799147353207E-16, 1.000000000000000000 ) ) ;
#298 = CARTESIAN_POINT ( 'NONE',  ( 0.0000000000000000000, 0.3422649730810378155, 0.0000000000000000000 ) ) ;
#299 = EDGE_LOOP ( 'NONE', ( #63 ) ) ;
#300 = ADVANCED_FACE ( 'NONE', ( #22, #215 ), #183, .T. ) ;
#301 = AXIS2_PLACEMENT_3D ( 'NONE', #127, #219, #21 ) ;
#302 = PLANE ( 'NONE',  #250 ) ;
#303 = EDGE_LOOP ( 'NONE', ( #294 ) ) ;
ENDSEC;
END-ISO-10303-21;
