ISO-10303-21;
HEADER;
FILE_DESCRIPTION (( 'STEP AP203' ),
    '1' );
FILE_NAME ('200756.step',
    '2021-12-01T10:39:54',
    ( '' ),
    ( '' ),
    'SwSTEP 2.0',
    'SolidWorks 2019',
    '' );
FILE_SCHEMA (( 'CONFIG_CONTROL_DESIGN' ));
ENDSEC;

DATA;
#1 = VERTEX_POINT ( 'NONE', #120 ) ;
#2 = DIRECTION ( 'NONE',  ( -3.491481338843133355E-15, 1.224646799147353207E-16, -1.000000000000000000 ) ) ;
#3 = ORIENTED_EDGE ( 'NONE', *, *, #175, .T. ) ;
#4 = PERSON_AND_ORGANIZATION ( #31, #132 ) ;
#5 = DIRECTION ( 'NONE',  ( -3.491481338843133355E-15, 1.224646799147353207E-16, -1.000000000000000000 ) ) ;
#6 = DIRECTION ( 'NONE',  ( 4.275831445896959482E-31, 1.000000000000000000, 1.224646799147353207E-16 ) ) ;
#7 = FACE_OUTER_BOUND ( 'NONE', #197, .T. ) ;
#8 = CLOSED_SHELL ( 'NONE', ( #296, #33, #44, #79 ) ) ;
#9 = DIRECTION ( 'NONE',  ( -3.491481338843133355E-15, 1.224646799147353207E-16, -1.000000000000000000 ) ) ;
#10 = APPLICATION_PROTOCOL_DEFINITION ( 'international standard', 'config_control_design', 1994, #231 ) ;
#11 = COORDINATED_UNIVERSAL_TIME_OFFSET ( 1, 0, .AHEAD. ) ;
#12 = APPLICATION_PROTOCOL_DEFINITION ( 'international standard', 'config_control_design', 1994, #147 ) ;
#13 = DIRECTION ( 'NONE',  ( -4.275831445896958607E-31, -1.000000000000000000, -1.224646799147353207E-16 ) ) ;
#14 = ADVANCED_BREP_SHAPE_REPRESENTATION ( '200756', ( #29, #220, #171 ), #262 ) ;
#15 = CYLINDRICAL_SURFACE ( 'NONE', #94, 1.500000000000000222 ) ;
#16 = LOCAL_TIME ( 11, 39, 54.00000000000000000, #11 ) ;
#17 = CARTESIAN_POINT ( 'NONE',  ( 0.0000000000000000000, 0.0000000000000000000, 0.0000000000000000000 ) ) ;
#18 = CC_DESIGN_PERSON_AND_ORGANIZATION_ASSIGNMENT ( #135, #225, ( #46 ) ) ;
#19 = DATE_AND_TIME ( #214, #111 ) ;
#20 = CC_DESIGN_SECURITY_CLASSIFICATION ( #187, ( #46 ) ) ;
#21 = AXIS2_PLACEMENT_3D ( 'NONE', #86, #82, #6 ) ;
#22 = DIRECTION ( 'NONE',  ( 0.0000000000000000000, 1.000000000000000000, 0.0000000000000000000 ) ) ;
#23 = AXIS2_PLACEMENT_3D ( 'NONE', #156, #54, #34 ) ;
#24 = AXIS2_PLACEMENT_3D ( 'NONE', #176, #57, #88 ) ;
#25 = PERSON_AND_ORGANIZATION_ROLE ( 'design_supplier' ) ;
#26 = EDGE_CURVE ( 'NONE', #103, #103, #121, .T. ) ;
#27 = EDGE_LOOP ( 'NONE', ( #251 ) ) ;
#28 = CARTESIAN_POINT ( 'NONE',  ( 1.316288464743861212E-13, 1.499999999999998668, 37.69999999999999574 ) ) ;
#29 = MANIFOLD_SOLID_BREP ( 'Corps-Déplacer/Copier1[1]', #110 ) ;
#30 = ORIENTED_EDGE ( 'NONE', *, *, #154, .T. ) ;
#31 = PERSON ( 'UNSPECIFIED', 'UNSPECIFIED', 'UNSPECIFIED', ('UNSPECIFIED'), ('UNSPECIFIED'), ('UNSPECIFIED') ) ;
#32 = AXIS2_PLACEMENT_3D ( 'NONE', #256, #55, #35 ) ;
#33 = ADVANCED_FACE ( 'NONE', ( #83, #140 ), #116, .T. ) ;
#34 = DIRECTION ( 'NONE',  ( -4.275831445896958607E-31, -1.000000000000000000, -1.224646799147353207E-16 ) ) ;
#35 = DIRECTION ( 'NONE',  ( 0.0000000000000000000, 1.000000000000000000, 0.0000000000000000000 ) ) ;
#36 = PERSON_AND_ORGANIZATION ( #31, #132 ) ;
#37 = AXIS2_PLACEMENT_3D ( 'NONE', #139, #5, #237 ) ;
#38 = DIRECTION ( 'NONE',  ( -3.851859888774479151E-31, -1.000000000000000000, -1.084202172485506529E-16 ) ) ;
#39 = CARTESIAN_POINT ( 'NONE',  ( 1.396592535537253342E-14, 2.812049592490973778E-33, 4.000000000000000000 ) ) ;
#40 = VERTEX_POINT ( 'NONE', #150 ) ;
#41 = DIRECTION ( 'NONE',  ( 3.491481338843133355E-15, -1.224646799147353207E-16, 1.000000000000000000 ) ) ;
#42 = AXIS2_PLACEMENT_3D ( 'NONE', #65, #238, #266 ) ;
#43 = UNCERTAINTY_MEASURE_WITH_UNIT (LENGTH_MEASURE( 1.000000000000000082E-05 ), #148, 'distance_accuracy_value', 'NONE');
#44 = ADVANCED_FACE ( 'NONE', ( #108, #288 ), #202, .T. ) ;
#45 = CONICAL_SURFACE ( 'NONE', #66, 1.499999999999997113, 0.1745329251994259534 ) ;
#46 = PRODUCT_DEFINITION_FORMATION_WITH_SPECIFIED_SOURCE ( 'ANY', '', #276, .NOT_KNOWN. ) ;
#47 = AXIS2_PLACEMENT_3D ( 'NONE', #101, #283, #282 ) ;
#48 = CARTESIAN_POINT ( 'NONE',  ( 1.326762908760390423E-13, 1.199999999999998845, 38.00000000000000000 ) ) ;
#49 = CARTESIAN_POINT ( 'NONE',  ( 1.411711093218641653E-14, -4.951615958525661096E-16, 4.043301270189224361 ) ) ;
#50 = ORIENTED_EDGE ( 'NONE', *, *, #300, .F. ) ;
#51 = ADVANCED_FACE ( 'NONE', ( #264, #258 ), #149, .T. ) ;
#52 = VERTEX_POINT ( 'NONE', #48 ) ;
#53 = AXIS2_PLACEMENT_3D ( 'NONE', #39, #90, #161 ) ;
#54 = DIRECTION ( 'NONE',  ( 3.491481338843133355E-15, -1.224646799147353207E-16, 1.000000000000000000 ) ) ;
#55 = DIRECTION ( 'NONE',  ( -3.491481338843133355E-15, 1.224646799147353207E-16, -1.000000000000000000 ) ) ;
#56 = CARTESIAN_POINT ( 'NONE',  ( 1.316288464743861212E-13, -4.616918432785521081E-15, 37.69999999999999574 ) ) ;
#57 = DIRECTION ( 'NONE',  ( -3.491481338843133355E-15, 1.224646799147353207E-16, -1.000000000000000000 ) ) ;
#58 = EDGE_CURVE ( 'NONE', #277, #277, #195, .T. ) ;
#59 = CIRCLE ( 'NONE', #180, 1.499999999999997113 ) ;
#60 = AXIS2_PLACEMENT_3D ( 'NONE', #49, #2, #137 ) ;
#61 = CARTESIAN_POINT ( 'NONE',  ( 2.914442945444142440E-14, -1.022248976309396081E-15, 8.347296355333845952 ) ) ;
#62 = CALENDAR_DATE ( 2021, 1, 12 ) ;
#63 = FACE_OUTER_BOUND ( 'NONE', #27, .T. ) ;
#64 = ORIENTED_EDGE ( 'NONE', *, *, #109, .T. ) ;
#65 = CARTESIAN_POINT ( 'NONE',  ( 1.396592535537253342E-14, -4.898587196589412829E-16, 4.000000000000000000 ) ) ;
#66 = AXIS2_PLACEMENT_3D ( 'NONE', #215, #41, #159 ) ;
#67 = DESIGN_CONTEXT ( 'detailed design', #147, 'design' ) ;
#68 = AXIS2_PLACEMENT_3D ( 'NONE', #274, #221, #22 ) ;
#69 = LOCAL_TIME ( 11, 39, 54.00000000000000000, #185 ) ;
#70 = ORIENTED_EDGE ( 'NONE', *, *, #175, .F. ) ;
#71 = DIRECTION ( 'NONE',  ( 3.491481338843133355E-15, -1.224646799147353207E-16, 1.000000000000000000 ) ) ;
#72 = APPROVAL ( #218, 'UNSPECIFIED' ) ;
#73 = EDGE_LOOP ( 'NONE', ( #3 ) ) ;
#74 = VERTEX_POINT ( 'NONE', #78 ) ;
#75 = CIRCLE ( 'NONE', #42, 0.3749999999999997224 ) ;
#76 = ORIENTED_EDGE ( 'NONE', *, *, #26, .F. ) ;
#77 = APPROVAL_STATUS ( 'not_yet_approved' ) ;
#78 = CARTESIAN_POINT ( 'NONE',  ( 1.396592535537253342E-14, 0.3749999999999992228, 4.000000000000000000 ) ) ;
#79 = ADVANCED_FACE ( 'NONE', ( #182 ), #223, .T. ) ;
#80 = DIRECTION ( 'NONE',  ( 0.0000000000000000000, 1.000000000000000000, 0.0000000000000000000 ) ) ;
#81 = DIRECTION ( 'NONE',  ( 0.0000000000000000000, 0.0000000000000000000, 1.000000000000000000 ) ) ;
#82 = DIRECTION ( 'NONE',  ( -3.491481338843133355E-15, 1.224646799147353207E-16, -1.000000000000000000 ) ) ;
#83 = FACE_BOUND ( 'NONE', #95, .T. ) ;
#84 = DIRECTION ( 'NONE',  ( 0.0000000000000000000, 1.000000000000000000, 0.0000000000000000000 ) ) ;
#85 = SHAPE_DEFINITION_REPRESENTATION ( #292, #14 ) ;
#86 = CARTESIAN_POINT ( 'NONE',  ( 0.0000000000000000000, 0.0000000000000000000, 0.0000000000000000000 ) ) ;
#87 = AXIS2_PLACEMENT_3D ( 'NONE', #184, #236, #38 ) ;
#88 = DIRECTION ( 'NONE',  ( 4.275831445896958607E-31, 1.000000000000000000, 1.224646799147353207E-16 ) ) ;
#89 = ADVANCED_FACE ( 'NONE', ( #7 ), #102, .F. ) ;
#90 = DIRECTION ( 'NONE',  ( 3.491481338843133355E-15, -1.224646799147353207E-16, 1.000000000000000000 ) ) ;
#91 = DIRECTION ( 'NONE',  ( 4.275831445896959482E-31, 1.000000000000000000, 1.224646799147353207E-16 ) ) ;
#92 = APPROVAL_ROLE ( '' ) ;
#93 = EDGE_LOOP ( 'NONE', ( #302 ) ) ;
#94 = AXIS2_PLACEMENT_3D ( 'NONE', #17, #291, #91 ) ;
#95 = EDGE_LOOP ( 'NONE', ( #76 ) ) ;
#96 = CARTESIAN_POINT ( 'NONE',  ( 1.396592535537253342E-14, 2.812049592490973778E-33, 4.000000000000000000 ) ) ;
#97 = ORIENTED_EDGE ( 'NONE', *, *, #26, .T. ) ;
#98 = ORIENTED_EDGE ( 'NONE', *, *, #154, .F. ) ;
#99 = EDGE_CURVE ( 'NONE', #301, #301, #152, .T. ) ;
#100 = PLANE ( 'NONE',  #23 ) ;
#101 = CARTESIAN_POINT ( 'NONE',  ( -1.356571548581553013E-31, 4.758212470742372222E-33, -3.885375337652639645E-17 ) ) ;
#102 = PLANE ( 'NONE',  #24 ) ;
#103 = VERTEX_POINT ( 'NONE', #168 ) ;
#104 = ORIENTED_EDGE ( 'NONE', *, *, #99, .F. ) ;
#105 = PERSON_AND_ORGANIZATION ( #31, #132 ) ;
#106 = DIRECTION ( 'NONE',  ( 1.000000000000000000, 0.0000000000000000000, 0.0000000000000000000 ) ) ;
#107 = DIRECTION ( 'NONE',  ( 0.0000000000000000000, 1.000000000000000000, 0.0000000000000000000 ) ) ;
#108 = FACE_OUTER_BOUND ( 'NONE', #200, .T. ) ;
#109 = EDGE_CURVE ( 'NONE', #174, #174, #261, .T. ) ;
#110 = CLOSED_SHELL ( 'NONE', ( #136, #286, #222, #112, #189, #230, #51, #89 ) ) ;
#111 = LOCAL_TIME ( 11, 39, 54.00000000000000000, #129 ) ;
#112 = ADVANCED_FACE ( 'NONE', ( #157, #142 ), #190, .F. ) ;
#113 = CC_DESIGN_DATE_AND_TIME_ASSIGNMENT ( #242, #213, ( #187 ) ) ;
#114 = FACE_OUTER_BOUND ( 'NONE', #204, .T. ) ;
#115 = EDGE_LOOP ( 'NONE', ( #50 ) ) ;
#116 = CONICAL_SURFACE ( 'NONE', #87, 0.3749999999999992784, 0.5235987755982918213 ) ;
#117 = SECURITY_CLASSIFICATION_LEVEL ( 'unclassified' ) ;
#118 = EDGE_LOOP ( 'NONE', ( #70 ) ) ;
#119 = PRODUCT_RELATED_PRODUCT_CATEGORY ( 'detail', '', ( #276 ) ) ;
#120 = CARTESIAN_POINT ( 'NONE',  ( 5.131413161946100799E-14, 1.499999999999995559, 14.69695141961246065 ) ) ;
#121 = CIRCLE ( 'NONE', #47, 0.3172649730810376822 ) ;
#122 = CC_DESIGN_APPROVAL ( #247, ( #272 ) ) ;
#123 = CC_DESIGN_DATE_AND_TIME_ASSIGNMENT ( #19, #293, ( #272 ) ) ;
#124 = PERSON_AND_ORGANIZATION_ROLE ( 'design_owner' ) ;
#125 = CARTESIAN_POINT ( 'NONE',  ( 5.131413161946100799E-14, -1.799857451325254854E-15, 14.69695141961246065 ) ) ;
#126 = DIRECTION ( 'NONE',  ( -3.491481338843133355E-15, 1.224646799147353207E-16, -1.000000000000000000 ) ) ;
#127 = DIRECTION ( 'NONE',  ( 4.275831445896958607E-31, 1.000000000000000000, 1.224646799147353207E-16 ) ) ;
#128 = AXIS2_PLACEMENT_3D ( 'NONE', #181, #126, #254 ) ;
#129 = COORDINATED_UNIVERSAL_TIME_OFFSET ( 1, 0, .AHEAD. ) ;
#130 = FACE_BOUND ( 'NONE', #278, .T. ) ;
#131 = EDGE_CURVE ( 'NONE', #1, #1, #59, .T. ) ;
#132 = ORGANIZATION ( 'UNSPECIFIED', 'UNSPECIFIED', '' ) ;
#133 = EDGE_LOOP ( 'NONE', ( #253 ) ) ;
#134 = APPROVAL ( #77, 'UNSPECIFIED' ) ;
#135 = PERSON_AND_ORGANIZATION ( #31, #132 ) ;
#136 = ADVANCED_FACE ( 'NONE', ( #158 ), #260, .F. ) ;
#137 = DIRECTION ( 'NONE',  ( 0.0000000000000000000, 1.000000000000000000, 0.0000000000000000000 ) ) ;
#138 = APPROVAL_PERSON_ORGANIZATION ( #105, #134, #178 ) ;
#139 = CARTESIAN_POINT ( 'NONE',  ( 1.396592535537253342E-14, -4.898587196589412829E-16, 4.000000000000000000 ) ) ;
#140 = FACE_OUTER_BOUND ( 'NONE', #198, .T. ) ;
#141 = COORDINATED_UNIVERSAL_TIME_OFFSET ( 1, 0, .AHEAD. ) ;
#142 = FACE_OUTER_BOUND ( 'NONE', #166, .T. ) ;
#143 = CARTESIAN_POINT ( 'NONE',  ( 0.0000000000000000000, 0.0000000000000000000, 0.0000000000000000000 ) ) ;
#144 = DIRECTION ( 'NONE',  ( -3.491481338843133355E-15, 1.224646799147353207E-16, -1.000000000000000000 ) ) ;
#145 = DATE_AND_TIME ( #62, #16 ) ;
#146 = DIRECTION ( 'NONE',  ( 0.0000000000000000000, 1.000000000000000000, 0.0000000000000000000 ) ) ;
#147 = APPLICATION_CONTEXT ( 'configuration controlled 3d designs of mechanical parts and assemblies' ) ;
#148 =( LENGTH_UNIT ( ) NAMED_UNIT ( * ) SI_UNIT ( .MILLI., .METRE. ) );
#149 = CONICAL_SURFACE ( 'NONE', #32, 1.200000000000003286, 0.7853981633974453924 ) ;
#150 = CARTESIAN_POINT ( 'NONE',  ( 1.411711093218641653E-14, 0.3499999999999984235, 4.043301270189224361 ) ) ;
#151 = CONICAL_SURFACE ( 'NONE', #60, 0.3499999999999989231, 0.5235987755982902669 ) ;
#152 = CIRCLE ( 'NONE', #37, 0.3749999999999997224 ) ;
#153 = VERTEX_POINT ( 'NONE', #252 ) ;
#154 = EDGE_CURVE ( 'NONE', #199, #199, #226, .T. ) ;
#155 = LOCAL_TIME ( 11, 39, 54.00000000000000000, #141 ) ;
#156 = CARTESIAN_POINT ( 'NONE',  ( -6.782857742907765063E-32, 2.379106235371186111E-33, -1.942687668826319822E-17 ) ) ;
#157 = FACE_OUTER_BOUND ( 'NONE', #118, .T. ) ;
#158 = FACE_OUTER_BOUND ( 'NONE', #164, .T. ) ;
#159 = DIRECTION ( 'NONE',  ( 0.0000000000000000000, -1.000000000000000000, 0.0000000000000000000 ) ) ;
#160 = PERSON_AND_ORGANIZATION ( #31, #132 ) ;
#161 = DIRECTION ( 'NONE',  ( -4.275831445896958607E-31, -1.000000000000000000, -1.224646799147353207E-16 ) ) ;
#162 = CIRCLE ( 'NONE', #68, 1.200000000000003286 ) ;
#163 = DATE_AND_TIME ( #216, #273 ) ;
#164 = EDGE_LOOP ( 'NONE', ( #194 ) ) ;
#165 = AXIS2_PLACEMENT_3D ( 'NONE', #56, #207, #107 ) ;
#166 = EDGE_LOOP ( 'NONE', ( #30 ) ) ;
#167 = EDGE_CURVE ( 'NONE', #74, #74, #75, .T. ) ;
#168 = CARTESIAN_POINT ( 'NONE',  ( 0.0000000000000000000, 0.3172649730810376822, 0.0000000000000000000 ) ) ;
#169 = ORIENTED_EDGE ( 'NONE', *, *, #167, .F. ) ;
#170 = AXIS2_PLACEMENT_3D ( 'NONE', #208, #9, #183 ) ;
#171 = AXIS2_PLACEMENT_3D ( 'NONE', #143, #81, #106 ) ;
#172 = DIRECTION ( 'NONE',  ( -3.491481338843133355E-15, 1.224646799147353207E-16, -1.000000000000000000 ) ) ;
#173 = EDGE_LOOP ( 'NONE', ( #227 ) ) ;
#174 = VERTEX_POINT ( 'NONE', #234 ) ;
#175 = EDGE_CURVE ( 'NONE', #153, #153, #211, .T. ) ;
#176 = CARTESIAN_POINT ( 'NONE',  ( 1.326762908760390423E-13, 8.998558695971103225E-33, 38.00000000000000000 ) ) ;
#177 = EDGE_LOOP ( 'NONE', ( #280 ) ) ;
#178 = APPROVAL_ROLE ( '' ) ;
#179 = CC_DESIGN_PERSON_AND_ORGANIZATION_ASSIGNMENT ( #160, #267, ( #187 ) ) ;
#180 = AXIS2_PLACEMENT_3D ( 'NONE', #125, #285, #84 ) ;
#181 = CARTESIAN_POINT ( 'NONE',  ( 3.491481338843131876E-16, -1.224646799147352653E-17, 0.09999999999999995004 ) ) ;
#182 = FACE_OUTER_BOUND ( 'NONE', #224, .T. ) ;
#183 = DIRECTION ( 'NONE',  ( 4.275831445896958607E-31, 1.000000000000000000, 1.224646799147353207E-16 ) ) ;
#184 = CARTESIAN_POINT ( 'NONE',  ( 3.491481338843131876E-16, -1.224646799147352653E-17, 0.09999999999999995004 ) ) ;
#185 = COORDINATED_UNIVERSAL_TIME_OFFSET ( 1, 0, .AHEAD. ) ;
#186 = AXIS2_PLACEMENT_3D ( 'NONE', #96, #71, #13 ) ;
#187 = SECURITY_CLASSIFICATION ( '', '', #117 ) ;
#188 = DIRECTION ( 'NONE',  ( -3.491481338843133355E-15, 1.224646799147353207E-16, -1.000000000000000000 ) ) ;
#189 = ADVANCED_FACE ( 'NONE', ( #130, #63 ), #45, .T. ) ;
#190 = TOROIDAL_SURFACE ( 'NONE', #170, 2.349999999999999201, 2.000000000000000000 ) ;
#191 = ORIENTED_EDGE ( 'NONE', *, *, #131, .F. ) ;
#192 = DATE_AND_TIME ( #281, #155 ) ;
#193 = FACE_OUTER_BOUND ( 'NONE', #73, .T. ) ;
#194 = ORIENTED_EDGE ( 'NONE', *, *, #99, .T. ) ;
#195 = CIRCLE ( 'NONE', #165, 1.500000000000003331 ) ;
#196 = CC_DESIGN_PERSON_AND_ORGANIZATION_ASSIGNMENT ( #36, #124, ( #276 ) ) ;
#197 = EDGE_LOOP ( 'NONE', ( #250 ) ) ;
#198 = EDGE_LOOP ( 'NONE', ( #64 ) ) ;
#199 = VERTEX_POINT ( 'NONE', #279 ) ;
#200 = EDGE_LOOP ( 'NONE', ( #275 ) ) ;
#201 = APPROVAL_PERSON_ORGANIZATION ( #269, #72, #92 ) ;
#202 = CYLINDRICAL_SURFACE ( 'NONE', #21, 0.3749999999999995004 ) ;
#203 =( NAMED_UNIT ( * ) SI_UNIT ( $, .STERADIAN. ) SOLID_ANGLE_UNIT ( ) );
#204 = EDGE_LOOP ( 'NONE', ( #104 ) ) ;
#205 = APPROVAL_DATE_TIME ( #192, #134 ) ;
#206 = AXIS2_PLACEMENT_3D ( 'NONE', #61, #188, #268 ) ;
#207 = DIRECTION ( 'NONE',  ( -3.491481338843133355E-15, 1.224646799147353207E-16, -1.000000000000000000 ) ) ;
#208 = CARTESIAN_POINT ( 'NONE',  ( 2.793185071074506684E-14, -8.673617379884035472E-16, 8.000000000000000000 ) ) ;
#209 = APPROVAL_ROLE ( '' ) ;
#210 = FACE_OUTER_BOUND ( 'NONE', #93, .T. ) ;
#211 = CIRCLE ( 'NONE', #217, 0.3499999999999993117 ) ;
#212 = FACE_OUTER_BOUND ( 'NONE', #271, .T. ) ;
#213 = DATE_TIME_ROLE ( 'classification_date' ) ;
#214 = CALENDAR_DATE ( 2021, 1, 12 ) ;
#215 = CARTESIAN_POINT ( 'NONE',  ( 5.131413161946100799E-14, -1.799857451325254854E-15, 14.69695141961246065 ) ) ;
#216 = CALENDAR_DATE ( 2021, 1, 12 ) ;
#217 = AXIS2_PLACEMENT_3D ( 'NONE', #245, #144, #146 ) ;
#218 = APPROVAL_STATUS ( 'not_yet_approved' ) ;
#219 = AXIS2_PLACEMENT_3D ( 'NONE', #228, #172, #80 ) ;
#220 = MANIFOLD_SOLID_BREP ( 'Corps-Déplacer/Copier1[2]', #8 ) ;
#221 = DIRECTION ( 'NONE',  ( -3.491481338843133355E-15, 1.224646799147353207E-16, -1.000000000000000000 ) ) ;
#222 = ADVANCED_FACE ( 'NONE', ( #270, #193 ), #240, .T. ) ;
#223 = PLANE ( 'NONE',  #186 ) ;
#224 = EDGE_LOOP ( 'NONE', ( #169 ) ) ;
#225 = PERSON_AND_ORGANIZATION_ROLE ( 'creator' ) ;
#226 = CIRCLE ( 'NONE', #206, 0.3803844939755807730 ) ;
#227 = ORIENTED_EDGE ( 'NONE', *, *, #58, .F. ) ;
#228 = CARTESIAN_POINT ( 'NONE',  ( 1.411711093218641653E-14, -4.951615958525661096E-16, 4.043301270189224361 ) ) ;
#229 = PERSON_AND_ORGANIZATION ( #31, #132 ) ;
#230 = ADVANCED_FACE ( 'NONE', ( #212, #210 ), #15, .T. ) ;
#231 = APPLICATION_CONTEXT ( 'configuration controlled 3d designs of mechanical parts and assemblies' ) ;
#232 = FACE_OUTER_BOUND ( 'NONE', #298, .T. ) ;
#233 = AXIS2_PLACEMENT_3D ( 'NONE', #295, #249, #127 ) ;
#234 = CARTESIAN_POINT ( 'NONE',  ( 3.491481338843133355E-16, 0.3749999999999992784, 0.09999999999999999167 ) ) ;
#235 = CC_DESIGN_APPROVAL ( #134, ( #187 ) ) ;
#236 = DIRECTION ( 'NONE',  ( 3.491481338843133355E-15, -1.224646799147353207E-16, 1.000000000000000000 ) ) ;
#237 = DIRECTION ( 'NONE',  ( 0.0000000000000000000, 1.000000000000000000, 0.0000000000000000000 ) ) ;
#238 = DIRECTION ( 'NONE',  ( -3.491481338843133355E-15, 1.224646799147353207E-16, -1.000000000000000000 ) ) ;
#239 = APPROVAL_DATE_TIME ( #145, #247 ) ;
#240 = CYLINDRICAL_SURFACE ( 'NONE', #233, 0.3499999999999990896 ) ;
#241 = CC_DESIGN_PERSON_AND_ORGANIZATION_ASSIGNMENT ( #229, #25, ( #46 ) ) ;
#242 = DATE_AND_TIME ( #290, #69 ) ;
#243 = PERSON_AND_ORGANIZATION_ROLE ( 'creator' ) ;
#244 = APPROVAL_DATE_TIME ( #163, #72 ) ;
#245 = CARTESIAN_POINT ( 'NONE',  ( 2.793185071074506684E-14, -9.797174393178825657E-16, 8.000000000000000000 ) ) ;
#246 = COORDINATED_UNIVERSAL_TIME_OFFSET ( 1, 0, .AHEAD. ) ;
#247 = APPROVAL ( #265, 'UNSPECIFIED' ) ;
#248 = CC_DESIGN_APPROVAL ( #72, ( #46 ) ) ;
#249 = DIRECTION ( 'NONE',  ( -3.491481338843133355E-15, 1.224646799147353207E-16, -1.000000000000000000 ) ) ;
#250 = ORIENTED_EDGE ( 'NONE', *, *, #257, .F. ) ;
#251 = ORIENTED_EDGE ( 'NONE', *, *, #131, .T. ) ;
#252 = CARTESIAN_POINT ( 'NONE',  ( 2.793185071074506684E-14, 0.3499999999999983125, 8.000000000000000000 ) ) ;
#253 = ORIENTED_EDGE ( 'NONE', *, *, #300, .T. ) ;
#254 = DIRECTION ( 'NONE',  ( 3.851859888774479151E-31, 1.000000000000000000, 1.084202172485506529E-16 ) ) ;
#255 = CARTESIAN_POINT ( 'NONE',  ( 1.396592535537253342E-14, 0.3749999999999992228, 4.000000000000000000 ) ) ;
#256 = CARTESIAN_POINT ( 'NONE',  ( 1.326762908760390423E-13, -4.653657836759941941E-15, 38.00000000000000000 ) ) ;
#257 = EDGE_CURVE ( 'NONE', #52, #52, #162, .T. ) ;
#258 = FACE_BOUND ( 'NONE', #297, .T. ) ;
#259 = PERSON_AND_ORGANIZATION ( #31, #132 ) ;
#260 = PLANE ( 'NONE',  #53 ) ;
#261 = CIRCLE ( 'NONE', #128, 0.3749999999999992784 ) ;
#262 =( GEOMETRIC_REPRESENTATION_CONTEXT ( 3 ) GLOBAL_UNCERTAINTY_ASSIGNED_CONTEXT ( ( #43 ) ) GLOBAL_UNIT_ASSIGNED_CONTEXT ( ( #148, #287, #203 ) ) REPRESENTATION_CONTEXT ( 'NONE', 'WORKASPACE' ) );
#263 = MECHANICAL_CONTEXT ( 'NONE', #231, 'mechanical' ) ;
#264 = FACE_OUTER_BOUND ( 'NONE', #173, .T. ) ;
#265 = APPROVAL_STATUS ( 'not_yet_approved' ) ;
#266 = DIRECTION ( 'NONE',  ( 0.0000000000000000000, 1.000000000000000000, 0.0000000000000000000 ) ) ;
#267 = PERSON_AND_ORGANIZATION_ROLE ( 'classification_officer' ) ;
#268 = DIRECTION ( 'NONE',  ( 0.0000000000000000000, 1.000000000000000000, 0.0000000000000000000 ) ) ;
#269 = PERSON_AND_ORGANIZATION ( #31, #132 ) ;
#270 = FACE_OUTER_BOUND ( 'NONE', #115, .T. ) ;
#271 = EDGE_LOOP ( 'NONE', ( #191 ) ) ;
#272 = PRODUCT_DEFINITION ( 'UNKNOWN', '', #46, #67 ) ;
#273 = LOCAL_TIME ( 11, 39, 54.00000000000000000, #246 ) ;
#274 = CARTESIAN_POINT ( 'NONE',  ( 1.326762908760390423E-13, -4.653657836759941941E-15, 38.00000000000000000 ) ) ;
#275 = ORIENTED_EDGE ( 'NONE', *, *, #109, .F. ) ;
#276 = PRODUCT ( '200756', '200756', '', ( #263 ) ) ;
#277 = VERTEX_POINT ( 'NONE', #28 ) ;
#278 = EDGE_LOOP ( 'NONE', ( #98 ) ) ;
#279 = CARTESIAN_POINT ( 'NONE',  ( 2.914442945444142440E-14, 0.3803844939755797183, 8.347296355333845952 ) ) ;
#280 = ORIENTED_EDGE ( 'NONE', *, *, #167, .T. ) ;
#281 = CALENDAR_DATE ( 2021, 1, 12 ) ;
#282 = DIRECTION ( 'NONE',  ( 4.275831445896958607E-31, 1.000000000000000000, 1.224646799147353207E-16 ) ) ;
#283 = DIRECTION ( 'NONE',  ( -3.491481338843133355E-15, 1.224646799147353207E-16, -1.000000000000000000 ) ) ;
#284 = CC_DESIGN_PERSON_AND_ORGANIZATION_ASSIGNMENT ( #4, #243, ( #272 ) ) ;
#285 = DIRECTION ( 'NONE',  ( -3.491481338843133355E-15, 1.224646799147353207E-16, -1.000000000000000000 ) ) ;
#286 = ADVANCED_FACE ( 'NONE', ( #114, #294 ), #151, .T. ) ;
#287 =( NAMED_UNIT ( * ) PLANE_ANGLE_UNIT ( ) SI_UNIT ( $, .RADIAN. ) );
#288 = FACE_OUTER_BOUND ( 'NONE', #177, .T. ) ;
#289 = CIRCLE ( 'NONE', #219, 0.3499999999999989231 ) ;
#290 = CALENDAR_DATE ( 2021, 1, 12 ) ;
#291 = DIRECTION ( 'NONE',  ( -3.491481338843133355E-15, 1.224646799147353207E-16, -1.000000000000000000 ) ) ;
#292 = PRODUCT_DEFINITION_SHAPE ( 'NONE', 'NONE',  #272 ) ;
#293 = DATE_TIME_ROLE ( 'creation_date' ) ;
#294 = FACE_BOUND ( 'NONE', #133, .T. ) ;
#295 = CARTESIAN_POINT ( 'NONE',  ( 0.0000000000000000000, 0.0000000000000000000, 0.0000000000000000000 ) ) ;
#296 = ADVANCED_FACE ( 'NONE', ( #232 ), #100, .F. ) ;
#297 = EDGE_LOOP ( 'NONE', ( #299 ) ) ;
#298 = EDGE_LOOP ( 'NONE', ( #97 ) ) ;
#299 = ORIENTED_EDGE ( 'NONE', *, *, #257, .T. ) ;
#300 = EDGE_CURVE ( 'NONE', #40, #40, #289, .T. ) ;
#301 = VERTEX_POINT ( 'NONE', #255 ) ;
#302 = ORIENTED_EDGE ( 'NONE', *, *, #58, .T. ) ;
#303 = APPROVAL_PERSON_ORGANIZATION ( #259, #247, #209 ) ;
ENDSEC;
END-ISO-10303-21;
