ISO-10303-21;
HEADER;
FILE_DESCRIPTION (( 'STEP AP203' ),
    '1' );
FILE_NAME ('200755.step',
    '2021-12-01T07:27:22',
    ( '' ),
    ( '' ),
    'SwSTEP 2.0',
    'SolidWorks 2019',
    '' );
FILE_SCHEMA (( 'CONFIG_CONTROL_DESIGN' ));
ENDSEC;

DATA;
#1 = CARTESIAN_POINT ( 'NONE',  ( -1.594584775653009470E-31, 5.593050490482070032E-33, -4.567072313728472484E-17 ) ) ;
#2 = APPROVAL_PERSON_ORGANIZATION ( #167, #76, #144 ) ;
#3 = CARTESIAN_POINT ( 'NONE',  ( 1.396592535537253342E-14, -4.898587196589412829E-16, 4.000000000000000000 ) ) ;
#4 = DIRECTION ( 'NONE',  ( -3.491481338843133355E-15, 1.224646799147353207E-16, -1.000000000000000000 ) ) ;
#5 = CONICAL_SURFACE ( 'NONE', #277, 1.200000000000003286, 0.7853981633974453924 ) ;
#6 = CARTESIAN_POINT ( 'NONE',  ( -4.731839565957903391E-32, 0.2622649730810374114, -1.355252715606880543E-17 ) ) ;
#7 = CARTESIAN_POINT ( 'NONE',  ( 2.444036937190193349E-14, -8.572527594031473190E-16, 7.000000000000000000 ) ) ;
#8 = APPROVAL_STATUS ( 'not_yet_approved' ) ;
#9 = ORIENTED_EDGE ( 'NONE', *, *, #87, .T. ) ;
#10 = VERTEX_POINT ( 'NONE', #53 ) ;
#11 = ADVANCED_FACE ( 'NONE', ( #275 ), #271, .F. ) ;
#12 = CARTESIAN_POINT ( 'NONE',  ( 4.841668551983334906E-14, 1.499999999999995559, 13.86708987420099426 ) ) ;
#13 = ORIENTED_EDGE ( 'NONE', *, *, #176, .T. ) ;
#14 = CONICAL_SURFACE ( 'NONE', #280, 1.499999999999997113, 0.1745329251994260922 ) ;
#15 = PRODUCT_RELATED_PRODUCT_CATEGORY ( 'detail', '', ( #175 ) ) ;
#16 = AXIS2_PLACEMENT_3D ( 'NONE', #7, #104, #168 ) ;
#17 = CALENDAR_DATE ( 2021, 1, 12 ) ;
#18 = CARTESIAN_POINT ( 'NONE',  ( 2.444036937190193349E-14, -8.673617379884035472E-16, 7.000000000000000000 ) ) ;
#19 = FACE_OUTER_BOUND ( 'NONE', #213, .T. ) ;
#20 = DIRECTION ( 'NONE',  ( 0.0000000000000000000, 1.000000000000000000, 0.0000000000000000000 ) ) ;
#21 = EDGE_LOOP ( 'NONE', ( #186 ) ) ;
#22 = PLANE ( 'NONE',  #192 ) ;
#23 = CARTESIAN_POINT ( 'NONE',  ( 1.396592535537253342E-14, 0.3199999999999991185, 4.000000000000000000 ) ) ;
#24 = CC_DESIGN_SECURITY_CLASSIFICATION ( #84, ( #128 ) ) ;
#25 = ADVANCED_FACE ( 'NONE', ( #145 ), #30, .T. ) ;
#26 = CARTESIAN_POINT ( 'NONE',  ( 1.326762908760390423E-13, -4.653657836759941941E-15, 38.00000000000000000 ) ) ;
#27 = APPROVAL_STATUS ( 'not_yet_approved' ) ;
#28 = EDGE_CURVE ( 'NONE', #283, #283, #155, .T. ) ;
#29 = SECURITY_CLASSIFICATION_LEVEL ( 'unclassified' ) ;
#30 = PLANE ( 'NONE',  #111 ) ;
#31 = CIRCLE ( 'NONE', #245, 1.499999999999997113 ) ;
#32 = APPROVAL_DATE_TIME ( #273, #76 ) ;
#33 = DIRECTION ( 'NONE',  ( -3.491481338843133355E-15, 1.224646799147353207E-16, -1.000000000000000000 ) ) ;
#34 = APPROVAL_DATE_TIME ( #169, #224 ) ;
#35 = EDGE_LOOP ( 'NONE', ( #100 ) ) ;
#36 = EDGE_CURVE ( 'NONE', #90, #90, #141, .T. ) ;
#37 = VERTEX_POINT ( 'NONE', #12 ) ;
#38 = AXIS2_PLACEMENT_3D ( 'NONE', #251, #254, #249 ) ;
#39 = PRODUCT_DEFINITION_SHAPE ( 'NONE', 'NONE',  #244 ) ;
#40 = CC_DESIGN_DATE_AND_TIME_ASSIGNMENT ( #132, #153, ( #84 ) ) ;
#41 = APPROVAL_DATE_TIME ( #64, #72 ) ;
#42 = CIRCLE ( 'NONE', #222, 0.3199999999999996181 ) ;
#43 = CYLINDRICAL_SURFACE ( 'NONE', #165, 0.3199999999999993960 ) ;
#44 = APPROVAL_STATUS ( 'not_yet_approved' ) ;
#45 = FACE_OUTER_BOUND ( 'NONE', #91, .T. ) ;
#46 = ADVANCED_FACE ( 'NONE', ( #209, #63 ), #14, .T. ) ;
#47 = DIRECTION ( 'NONE',  ( -3.491481338843133355E-15, 1.224646799147353207E-16, -1.000000000000000000 ) ) ;
#48 = EDGE_LOOP ( 'NONE', ( #9 ) ) ;
#49 = CARTESIAN_POINT ( 'NONE',  ( 2.565294811559829736E-14, 0.3503844939755801913, 7.347296355333847728 ) ) ;
#50 = FACE_OUTER_BOUND ( 'NONE', #98, .T. ) ;
#51 = DIRECTION ( 'NONE',  ( -3.491481338843133355E-15, 1.224646799147353207E-16, -1.000000000000000000 ) ) ;
#52 = FACE_OUTER_BOUND ( 'NONE', #127, .T. ) ;
#53 = CARTESIAN_POINT ( 'NONE',  ( 1.396592535537253342E-14, 0.3199999999999991185, 4.000000000000000000 ) ) ;
#54 = ORIENTED_EDGE ( 'NONE', *, *, #36, .F. ) ;
#55 = EDGE_LOOP ( 'NONE', ( #247 ) ) ;
#56 = CC_DESIGN_APPROVAL ( #224, ( #244 ) ) ;
#57 = COORDINATED_UNIVERSAL_TIME_OFFSET ( 1, 0, .AHEAD. ) ;
#58 = CLOSED_SHELL ( 'NONE', ( #96, #240, #62, #46, #112, #166, #11 ) ) ;
#59 = DIRECTION ( 'NONE',  ( -4.275831445896958607E-31, -1.000000000000000000, -1.224646799147353207E-16 ) ) ;
#60 = APPROVAL_ROLE ( '' ) ;
#61 = ADVANCED_FACE ( 'NONE', ( #110, #45 ), #43, .T. ) ;
#62 = ADVANCED_FACE ( 'NONE', ( #66, #130 ), #177, .F. ) ;
#63 = FACE_OUTER_BOUND ( 'NONE', #189, .T. ) ;
#64 = DATE_AND_TIME ( #17, #258 ) ;
#65 = LOCAL_TIME ( 8, 27, 22.00000000000000000, #81 ) ;
#66 = FACE_OUTER_BOUND ( 'NONE', #82, .T. ) ;
#67 = APPLICATION_CONTEXT ( 'configuration controlled 3d designs of mechanical parts and assemblies' ) ;
#68 = DIRECTION ( 'NONE',  ( -3.491481338843133355E-15, 1.224646799147353207E-16, -1.000000000000000000 ) ) ;
#69 = CARTESIAN_POINT ( 'NONE',  ( 1.326762908760390423E-13, 1.199999999999998845, 38.00000000000000000 ) ) ;
#70 = EDGE_LOOP ( 'NONE', ( #105 ) ) ;
#71 = DESIGN_CONTEXT ( 'detailed design', #106, 'design' ) ;
#72 = APPROVAL ( #44, 'UNSPECIFIED' ) ;
#73 = DIRECTION ( 'NONE',  ( -3.491481338843133355E-15, 1.224646799147353207E-16, -1.000000000000000000 ) ) ;
#74 = CARTESIAN_POINT ( 'NONE',  ( -7.972923878265047350E-32, 2.796525245241035016E-33, -2.283536156864236242E-17 ) ) ;
#75 = CYLINDRICAL_SURFACE ( 'NONE', #215, 0.3199999999999997291 ) ;
#76 = APPROVAL ( #8, 'UNSPECIFIED' ) ;
#77 = AXIS2_PLACEMENT_3D ( 'NONE', #1, #264, #119 ) ;
#78 = COORDINATED_UNIVERSAL_TIME_OFFSET ( 1, 0, .AHEAD. ) ;
#79 = AXIS2_PLACEMENT_3D ( 'NONE', #18, #4, #223 ) ;
#80 = EDGE_LOOP ( 'NONE', ( #54 ) ) ;
#81 = COORDINATED_UNIVERSAL_TIME_OFFSET ( 1, 0, .AHEAD. ) ;
#82 = EDGE_LOOP ( 'NONE', ( #193 ) ) ;
#83 =( LENGTH_UNIT ( ) NAMED_UNIT ( * ) SI_UNIT ( .MILLI., .METRE. ) );
#84 = SECURITY_CLASSIFICATION ( '', '', #29 ) ;
#85 = CARTESIAN_POINT ( 'NONE',  ( 0.0000000000000000000, 0.0000000000000000000, 0.0000000000000000000 ) ) ;
#86 = CC_DESIGN_PERSON_AND_ORGANIZATION_ASSIGNMENT ( #124, #227, ( #128 ) ) ;
#87 = EDGE_CURVE ( 'NONE', #179, #179, #156, .T. ) ;
#88 = DIRECTION ( 'NONE',  ( 4.275831445896957731E-31, 1.000000000000000000, 1.224646799147352961E-16 ) ) ;
#89 = DIRECTION ( 'NONE',  ( 0.0000000000000000000, 1.000000000000000000, 0.0000000000000000000 ) ) ;
#90 = VERTEX_POINT ( 'NONE', #69 ) ;
#91 = EDGE_LOOP ( 'NONE', ( #95 ) ) ;
#92 = CC_DESIGN_PERSON_AND_ORGANIZATION_ASSIGNMENT ( #121, #103, ( #84 ) ) ;
#93 = DIRECTION ( 'NONE',  ( -3.491481338843133355E-15, 1.224646799147353207E-16, -1.000000000000000000 ) ) ;
#94 = DIRECTION ( 'NONE',  ( 0.0000000000000000000, 1.000000000000000000, 0.0000000000000000000 ) ) ;
#95 = ORIENTED_EDGE ( 'NONE', *, *, #137, .T. ) ;
#96 = ADVANCED_FACE ( 'NONE', ( #164 ), #22, .F. ) ;
#97 = CARTESIAN_POINT ( 'NONE',  ( 1.396592535537253342E-14, 2.399615652258961978E-33, 4.000000000000000000 ) ) ;
#98 = EDGE_LOOP ( 'NONE', ( #205 ) ) ;
#99 = DIRECTION ( 'NONE',  ( 1.000000000000000000, 0.0000000000000000000, 0.0000000000000000000 ) ) ;
#100 = ORIENTED_EDGE ( 'NONE', *, *, #131, .F. ) ;
#101 = AXIS2_PLACEMENT_3D ( 'NONE', #3, #73, #89 ) ;
#102 = ORIENTED_EDGE ( 'NONE', *, *, #176, .F. ) ;
#103 = PERSON_AND_ORGANIZATION_ROLE ( 'classification_officer' ) ;
#104 = DIRECTION ( 'NONE',  ( -3.491481338843133355E-15, 1.224646799147353207E-16, -1.000000000000000000 ) ) ;
#105 = ORIENTED_EDGE ( 'NONE', *, *, #270, .F. ) ;
#106 = APPLICATION_CONTEXT ( 'configuration controlled 3d designs of mechanical parts and assemblies' ) ;
#107 = AXIS2_PLACEMENT_3D ( 'NONE', #241, #237, #113 ) ;
#108 = EDGE_LOOP ( 'NONE', ( #262 ) ) ;
#109 = AXIS2_PLACEMENT_3D ( 'NONE', #230, #33, #125 ) ;
#110 = FACE_OUTER_BOUND ( 'NONE', #35, .T. ) ;
#111 = AXIS2_PLACEMENT_3D ( 'NONE', #190, #122, #59 ) ;
#112 = ADVANCED_FACE ( 'NONE', ( #163, #185 ), #243, .T. ) ;
#113 = DIRECTION ( 'NONE',  ( -4.513898307157595416E-31, -1.000000000000000000, -1.270549420881453713E-16 ) ) ;
#114 = DIRECTION ( 'NONE',  ( 4.275831445896959482E-31, 1.000000000000000000, 1.224646799147353207E-16 ) ) ;
#115 = EDGE_LOOP ( 'NONE', ( #150 ) ) ;
#116 = DIRECTION ( 'NONE',  ( -4.275831445896958607E-31, -1.000000000000000000, -1.224646799147353207E-16 ) ) ;
#117 = VERTEX_POINT ( 'NONE', #220 ) ;
#118 = UNCERTAINTY_MEASURE_WITH_UNIT (LENGTH_MEASURE( 1.000000000000000082E-05 ), #83, 'distance_accuracy_value', 'NONE');
#119 = DIRECTION ( 'NONE',  ( 4.275831445896957731E-31, 1.000000000000000000, 1.224646799147353207E-16 ) ) ;
#120 = EDGE_LOOP ( 'NONE', ( #102 ) ) ;
#121 = PERSON_AND_ORGANIZATION ( #171, #183 ) ;
#122 = DIRECTION ( 'NONE',  ( 3.491481338843133355E-15, -1.224646799147353207E-16, 1.000000000000000000 ) ) ;
#123 = AXIS2_PLACEMENT_3D ( 'NONE', #161, #218, #187 ) ;
#124 = PERSON_AND_ORGANIZATION ( #171, #183 ) ;
#125 = DIRECTION ( 'NONE',  ( 0.0000000000000000000, 1.000000000000000000, 0.0000000000000000000 ) ) ;
#126 =( NAMED_UNIT ( * ) SI_UNIT ( $, .STERADIAN. ) SOLID_ANGLE_UNIT ( ) );
#127 = EDGE_LOOP ( 'NONE', ( #143 ) ) ;
#128 = PRODUCT_DEFINITION_FORMATION_WITH_SPECIFIED_SOURCE ( 'ANY', '', #175, .NOT_KNOWN. ) ;
#129 = LOCAL_TIME ( 8, 27, 22.00000000000000000, #78 ) ;
#130 = FACE_OUTER_BOUND ( 'NONE', #48, .T. ) ;
#131 = EDGE_CURVE ( 'NONE', #117, #117, #182, .T. ) ;
#132 = DATE_AND_TIME ( #149, #236 ) ;
#133 = CIRCLE ( 'NONE', #77, 0.2622649730810374114 ) ;
#134 = FACE_OUTER_BOUND ( 'NONE', #70, .T. ) ;
#135 = CARTESIAN_POINT ( 'NONE',  ( 3.491481338843132369E-16, -1.224646799147352807E-17, 0.09999999999999996392 ) ) ;
#136 = CARTESIAN_POINT ( 'NONE',  ( 4.841668551983334906E-14, -1.698228722792892044E-15, 13.86708987420099426 ) ) ;
#137 = EDGE_CURVE ( 'NONE', #184, #184, #239, .T. ) ;
#138 = ORIENTED_EDGE ( 'NONE', *, *, #87, .F. ) ;
#139 = CIRCLE ( 'NONE', #123, 1.500000000000003331 ) ;
#140 = DIRECTION ( 'NONE',  ( -3.491481338843133355E-15, 1.224646799147353207E-16, -1.000000000000000000 ) ) ;
#141 = CIRCLE ( 'NONE', #109, 1.200000000000003286 ) ;
#142 = PERSON_AND_ORGANIZATION ( #171, #183 ) ;
#143 = ORIENTED_EDGE ( 'NONE', *, *, #131, .T. ) ;
#144 = APPROVAL_ROLE ( '' ) ;
#145 = FACE_OUTER_BOUND ( 'NONE', #180, .T. ) ;
#146 = CC_DESIGN_PERSON_AND_ORGANIZATION_ASSIGNMENT ( #208, #225, ( #175 ) ) ;
#147 = DATE_AND_TIME ( #248, #129 ) ;
#148 = EDGE_LOOP ( 'NONE', ( #138 ) ) ;
#149 = CALENDAR_DATE ( 2021, 1, 12 ) ;
#150 = ORIENTED_EDGE ( 'NONE', *, *, #36, .T. ) ;
#151 =( NAMED_UNIT ( * ) PLANE_ANGLE_UNIT ( ) SI_UNIT ( $, .RADIAN. ) );
#152 = CC_DESIGN_DATE_AND_TIME_ASSIGNMENT ( #147, #231, ( #244 ) ) ;
#153 = DATE_TIME_ROLE ( 'classification_date' ) ;
#154 = APPROVAL_PERSON_ORGANIZATION ( #195, #72, #216 ) ;
#155 = CIRCLE ( 'NONE', #16, 0.3199999999999999512 ) ;
#156 = CIRCLE ( 'NONE', #234, 0.3503844939755811350 ) ;
#157 = DIRECTION ( 'NONE',  ( -4.275831445896958607E-31, -1.000000000000000000, -1.224646799147353207E-16 ) ) ;
#158 = AXIS2_PLACEMENT_3D ( 'NONE', #135, #47, #282 ) ;
#159 = DIRECTION ( 'NONE',  ( 3.491481338843133355E-15, -1.224646799147353207E-16, 1.000000000000000000 ) ) ;
#160 = EDGE_LOOP ( 'NONE', ( #269 ) ) ;
#161 = CARTESIAN_POINT ( 'NONE',  ( 1.316288464743861212E-13, -4.616918432785521081E-15, 37.69999999999999574 ) ) ;
#162 = ADVANCED_FACE ( 'NONE', ( #259, #52 ), #228, .T. ) ;
#163 = FACE_OUTER_BOUND ( 'NONE', #108, .T. ) ;
#164 = FACE_OUTER_BOUND ( 'NONE', #160, .T. ) ;
#165 = AXIS2_PLACEMENT_3D ( 'NONE', #198, #279, #88 ) ;
#166 = ADVANCED_FACE ( 'NONE', ( #265, #178 ), #5, .T. ) ;
#167 = PERSON_AND_ORGANIZATION ( #171, #183 ) ;
#168 = DIRECTION ( 'NONE',  ( 0.0000000000000000000, 1.000000000000000000, 0.0000000000000000000 ) ) ;
#169 = DATE_AND_TIME ( #172, #65 ) ;
#170 = LOCAL_TIME ( 8, 27, 22.00000000000000000, #210 ) ;
#171 = PERSON ( 'UNSPECIFIED', 'UNSPECIFIED', 'UNSPECIFIED', ('UNSPECIFIED'), ('UNSPECIFIED'), ('UNSPECIFIED') ) ;
#172 = CALENDAR_DATE ( 2021, 1, 12 ) ;
#173 = EDGE_CURVE ( 'NONE', #256, #256, #139, .T. ) ;
#174 = APPLICATION_PROTOCOL_DEFINITION ( 'international standard', 'config_control_design', 1994, #106 ) ;
#175 = PRODUCT ( '200755', '200755', '', ( #268 ) ) ;
#176 = EDGE_CURVE ( 'NONE', #232, #232, #133, .T. ) ;
#177 = TOROIDAL_SURFACE ( 'NONE', #79, 2.319999999999999840, 2.000000000000000000 ) ;
#178 = FACE_BOUND ( 'NONE', #115, .T. ) ;
#179 = VERTEX_POINT ( 'NONE', #49 ) ;
#180 = EDGE_LOOP ( 'NONE', ( #238 ) ) ;
#181 = MANIFOLD_SOLID_BREP ( 'Corps-Déplacer/Copier1[2]', #255 ) ;
#182 = CIRCLE ( 'NONE', #158, 0.3199999999999991740 ) ;
#183 = ORGANIZATION ( 'UNSPECIFIED', 'UNSPECIFIED', '' ) ;
#184 = VERTEX_POINT ( 'NONE', #23 ) ;
#185 = FACE_OUTER_BOUND ( 'NONE', #55, .T. ) ;
#186 = ORIENTED_EDGE ( 'NONE', *, *, #173, .F. ) ;
#187 = DIRECTION ( 'NONE',  ( 0.0000000000000000000, 1.000000000000000000, 0.0000000000000000000 ) ) ;
#188 = CARTESIAN_POINT ( 'NONE',  ( 1.316288464743861212E-13, 1.499999999999998668, 37.69999999999999574 ) ) ;
#189 = EDGE_LOOP ( 'NONE', ( #226 ) ) ;
#190 = CARTESIAN_POINT ( 'NONE',  ( 1.396592535537253342E-14, 2.399615652258961978E-33, 4.000000000000000000 ) ) ;
#191 = DIRECTION ( 'NONE',  ( 0.0000000000000000000, 0.0000000000000000000, 1.000000000000000000 ) ) ;
#192 = AXIS2_PLACEMENT_3D ( 'NONE', #97, #159, #157 ) ;
#193 = ORIENTED_EDGE ( 'NONE', *, *, #28, .F. ) ;
#194 = ADVANCED_FACE ( 'NONE', ( #19 ), #266, .F. ) ;
#195 = PERSON_AND_ORGANIZATION ( #171, #183 ) ;
#196 = CARTESIAN_POINT ( 'NONE',  ( 2.565294811559829736E-14, -8.997842963946611302E-16, 7.347296355333847728 ) ) ;
#197 = CC_DESIGN_PERSON_AND_ORGANIZATION_ASSIGNMENT ( #206, #267, ( #244 ) ) ;
#198 = CARTESIAN_POINT ( 'NONE',  ( 0.0000000000000000000, 0.0000000000000000000, 0.0000000000000000000 ) ) ;
#199 = CC_DESIGN_APPROVAL ( #76, ( #128 ) ) ;
#200 = DIRECTION ( 'NONE',  ( 0.0000000000000000000, 1.000000000000000000, 0.0000000000000000000 ) ) ;
#201 = CARTESIAN_POINT ( 'NONE',  ( 2.444036937190193349E-14, 0.3199999999999991185, 7.000000000000000000 ) ) ;
#202 = DIRECTION ( 'NONE',  ( -3.491481338843133355E-15, 1.224646799147353207E-16, -1.000000000000000000 ) ) ;
#203 = CARTESIAN_POINT ( 'NONE',  ( 0.0000000000000000000, 0.0000000000000000000, 0.0000000000000000000 ) ) ;
#204 = DIRECTION ( 'NONE',  ( -3.491481338843133355E-15, 1.224646799147353207E-16, -1.000000000000000000 ) ) ;
#205 = ORIENTED_EDGE ( 'NONE', *, *, #28, .T. ) ;
#206 = PERSON_AND_ORGANIZATION ( #171, #183 ) ;
#207 = AXIS2_PLACEMENT_3D ( 'NONE', #203, #51, #114 ) ;
#208 = PERSON_AND_ORGANIZATION ( #171, #183 ) ;
#209 = FACE_BOUND ( 'NONE', #148, .T. ) ;
#210 = COORDINATED_UNIVERSAL_TIME_OFFSET ( 1, 0, .AHEAD. ) ;
#211 = EDGE_CURVE ( 'NONE', #37, #37, #31, .T. ) ;
#212 = CC_DESIGN_APPROVAL ( #72, ( #84 ) ) ;
#213 = EDGE_LOOP ( 'NONE', ( #13 ) ) ;
#214 = CARTESIAN_POINT ( 'NONE',  ( 4.841668551983334906E-14, -1.698228722792892044E-15, 13.86708987420099426 ) ) ;
#215 = AXIS2_PLACEMENT_3D ( 'NONE', #246, #202, #219 ) ;
#216 = APPROVAL_ROLE ( '' ) ;
#217 = DIRECTION ( 'NONE',  ( 0.0000000000000000000, -1.000000000000000000, 0.0000000000000000000 ) ) ;
#218 = DIRECTION ( 'NONE',  ( -3.491481338843133355E-15, 1.224646799147353207E-16, -1.000000000000000000 ) ) ;
#219 = DIRECTION ( 'NONE',  ( 4.275831445896958607E-31, 1.000000000000000000, 1.224646799147353207E-16 ) ) ;
#220 = CARTESIAN_POINT ( 'NONE',  ( 3.491481338843133848E-16, 0.3199999999999991740, 0.1000000000000000056 ) ) ;
#221 = CARTESIAN_POINT ( 'NONE',  ( 1.396592535537253342E-14, -4.898587196589412829E-16, 4.000000000000000000 ) ) ;
#222 = AXIS2_PLACEMENT_3D ( 'NONE', #221, #93, #20 ) ;
#223 = DIRECTION ( 'NONE',  ( 4.398772623689827275E-31, 1.000000000000000000, 1.224646799147353207E-16 ) ) ;
#224 = APPROVAL ( #27, 'UNSPECIFIED' ) ;
#225 = PERSON_AND_ORGANIZATION_ROLE ( 'design_owner' ) ;
#226 = ORIENTED_EDGE ( 'NONE', *, *, #211, .T. ) ;
#227 = PERSON_AND_ORGANIZATION_ROLE ( 'design_supplier' ) ;
#228 = CONICAL_SURFACE ( 'NONE', #107, 0.3199999999999991740, 0.5235987755982925984 ) ;
#229 = PERSON_AND_ORGANIZATION ( #171, #183 ) ;
#230 = CARTESIAN_POINT ( 'NONE',  ( 1.326762908760390423E-13, -4.653657836759941941E-15, 38.00000000000000000 ) ) ;
#231 = DATE_TIME_ROLE ( 'creation_date' ) ;
#232 = VERTEX_POINT ( 'NONE', #6 ) ;
#233 =( GEOMETRIC_REPRESENTATION_CONTEXT ( 3 ) GLOBAL_UNCERTAINTY_ASSIGNED_CONTEXT ( ( #118 ) ) GLOBAL_UNIT_ASSIGNED_CONTEXT ( ( #83, #151, #126 ) ) REPRESENTATION_CONTEXT ( 'NONE', 'WORKASPACE' ) );
#234 = AXIS2_PLACEMENT_3D ( 'NONE', #196, #68, #261 ) ;
#235 = DIRECTION ( 'NONE',  ( 3.491481338843133355E-15, -1.224646799147353207E-16, 1.000000000000000000 ) ) ;
#236 = LOCAL_TIME ( 8, 27, 22.00000000000000000, #57 ) ;
#237 = DIRECTION ( 'NONE',  ( 3.491481338843133355E-15, -1.224646799147353207E-16, 1.000000000000000000 ) ) ;
#238 = ORIENTED_EDGE ( 'NONE', *, *, #137, .F. ) ;
#239 = CIRCLE ( 'NONE', #101, 0.3199999999999996181 ) ;
#240 = ADVANCED_FACE ( 'NONE', ( #134, #50 ), #75, .T. ) ;
#241 = CARTESIAN_POINT ( 'NONE',  ( 3.491481338843132369E-16, -1.224646799147352807E-17, 0.09999999999999996392 ) ) ;
#242 = DIRECTION ( 'NONE',  ( 3.491481338843133355E-15, -1.224646799147353207E-16, 1.000000000000000000 ) ) ;
#243 = CYLINDRICAL_SURFACE ( 'NONE', #207, 1.500000000000000222 ) ;
#244 = PRODUCT_DEFINITION ( 'UNKNOWN', '', #128, #71 ) ;
#245 = AXIS2_PLACEMENT_3D ( 'NONE', #136, #204, #200 ) ;
#246 = CARTESIAN_POINT ( 'NONE',  ( 0.0000000000000000000, 0.0000000000000000000, 0.0000000000000000000 ) ) ;
#247 = ORIENTED_EDGE ( 'NONE', *, *, #173, .T. ) ;
#248 = CALENDAR_DATE ( 2021, 1, 12 ) ;
#249 = DIRECTION ( 'NONE',  ( 4.275831445896958607E-31, 1.000000000000000000, 1.224646799147353207E-16 ) ) ;
#250 = PERSON_AND_ORGANIZATION_ROLE ( 'creator' ) ;
#251 = CARTESIAN_POINT ( 'NONE',  ( 1.326762908760390423E-13, 8.998558695971103225E-33, 38.00000000000000000 ) ) ;
#252 = AXIS2_PLACEMENT_3D ( 'NONE', #85, #191, #99 ) ;
#253 = CALENDAR_DATE ( 2021, 1, 12 ) ;
#254 = DIRECTION ( 'NONE',  ( -3.491481338843133355E-15, 1.224646799147353207E-16, -1.000000000000000000 ) ) ;
#255 = CLOSED_SHELL ( 'NONE', ( #194, #162, #61, #25 ) ) ;
#256 = VERTEX_POINT ( 'NONE', #188 ) ;
#257 = COORDINATED_UNIVERSAL_TIME_OFFSET ( 1, 0, .AHEAD. ) ;
#258 = LOCAL_TIME ( 8, 27, 22.00000000000000000, #257 ) ;
#259 = FACE_BOUND ( 'NONE', #120, .T. ) ;
#260 = MANIFOLD_SOLID_BREP ( 'Corps-Déplacer/Copier1[1]', #58 ) ;
#261 = DIRECTION ( 'NONE',  ( 0.0000000000000000000, 1.000000000000000000, 0.0000000000000000000 ) ) ;
#262 = ORIENTED_EDGE ( 'NONE', *, *, #211, .F. ) ;
#263 = AXIS2_PLACEMENT_3D ( 'NONE', #74, #242, #116 ) ;
#264 = DIRECTION ( 'NONE',  ( -3.491481338843133355E-15, 1.224646799147353207E-16, -1.000000000000000000 ) ) ;
#265 = FACE_OUTER_BOUND ( 'NONE', #21, .T. ) ;
#266 = PLANE ( 'NONE',  #263 ) ;
#267 = PERSON_AND_ORGANIZATION_ROLE ( 'creator' ) ;
#268 = MECHANICAL_CONTEXT ( 'NONE', #67, 'mechanical' ) ;
#269 = ORIENTED_EDGE ( 'NONE', *, *, #270, .T. ) ;
#270 = EDGE_CURVE ( 'NONE', #10, #10, #42, .T. ) ;
#271 = PLANE ( 'NONE',  #38 ) ;
#272 = APPROVAL_PERSON_ORGANIZATION ( #142, #224, #60 ) ;
#273 = DATE_AND_TIME ( #253, #170 ) ;
#274 = APPLICATION_PROTOCOL_DEFINITION ( 'international standard', 'config_control_design', 1994, #67 ) ;
#275 = FACE_OUTER_BOUND ( 'NONE', #80, .T. ) ;
#276 = SHAPE_DEFINITION_REPRESENTATION ( #39, #278 ) ;
#277 = AXIS2_PLACEMENT_3D ( 'NONE', #26, #140, #94 ) ;
#278 = ADVANCED_BREP_SHAPE_REPRESENTATION ( '200755', ( #260, #181, #252 ), #233 ) ;
#279 = DIRECTION ( 'NONE',  ( -3.491481338843133355E-15, 1.224646799147353207E-16, -1.000000000000000000 ) ) ;
#280 = AXIS2_PLACEMENT_3D ( 'NONE', #214, #235, #217 ) ;
#281 = CC_DESIGN_PERSON_AND_ORGANIZATION_ASSIGNMENT ( #229, #250, ( #128 ) ) ;
#282 = DIRECTION ( 'NONE',  ( 4.513898307157595416E-31, 1.000000000000000000, 1.270549420881453713E-16 ) ) ;
#283 = VERTEX_POINT ( 'NONE', #201 ) ;
ENDSEC;
END-ISO-10303-21;
